TABULATURY | Murmur
RADIO FREE EUROPE

For the "Raving station/Straight off the boat" part:

e ----0--0--0-0--0--0-0--0--0-0--0--0-0-0-0-0---
B -----0--0----0--0----0--0----0--0--0-0-0-0-0--
G ---3--3--3-3--3--3-2--2--2-2--2--2------------

For the "Beside yourself.." part:

e --0--0--0-0--0--0------4--------
B ---4--4----4--4---5-5-5-5-5-----
G -4--4--4-4--4--4-6-6-6---6-6----

(play 2x)

A D E
Beside yourself if radio's gonna stay.
A D E
Reason: it could polish up the grey.
A D E
Put that, put that, put that up your wall
A D E
That this isn't country at all

F# A (EEAE) F# A B
Raving station, beside yourself

{same as verse above}
Keep me out of country in the word
Deal the porch is leading us absurd.
Push that, push that, push that to the hull
That this isn't nothing at all.

Straight off the boat, where to go?

E A E A
Calling on in transit, calling on in transit
E A E A
Radio Free Europe

Beside defying media too fast
Instead of pushing palaces to fall
Put that, put that, put that before all
That this isn't fortunate at all

Raving station, beside yourself
Calling on in transit, calling on in transit
Radio Free Europe, radio.

Bsus4 C# Bsus4 C#
Decide yourself, calling all of the medias too fast

Keep me out of country in the word
Disappoint is into us absurd

Straight off the boat, where to go?
Calling on in transit, calling on in transit
Radio Free Europe

 

PERFECT CIRCLE

F F/G D F F/G G
Put your hair back, we get to leave
F F/G D G
Eleven gallows on your sleeve
F F/G D F F/G G
Shallow figure, winner's pain
F F/G D F G F Dm7
Eleven shadows way out of place
C F C Dm
Standing too soon, shoulders high in the room
C F C Dm
Standing too soon, shoulders high in the room
C F C F
Standing too soon, shoulders high in the room

{same as before}
Pull your dress on and stay real close
Who might leave you where I left off?
A perfect circle of acquaintances and friends
Drink another, coin a phrase
Heaven assumed, shoulders high in the room
Heaven assumed, shoulders high in the room
Heaven assumed, shoulders high in the room

Try to win and suit your needs
Speak out sometimes but try to win
Standing too soon, shoulders high in the room
Standing too soon, shoulders high in the room
Standing too soon, shoulders high in the room
Standing too soon, shoulders high in the room
Standing too soon, shoulders high in the room

 

TALK ABOUT THE PASSION

{Main riff:}
E------------------------------------------------------
B-----------------------------3-------------3-2-0------
G-2-2-------2-2-------------0---0---------2--------2--- (repeat)
D-0-0-0-2-4-0-0-0-2-4-0---2-------2-----2--------------
A-----------------------3-----------3-0----------------
E------------------------------------------------------


{Verse riff #1:}
E-0-0-0-0-0-0--0-0-0-0-0-0---3-3-3-2-0-0-0-0----------------------
B-2-2-0-2-2-0--2-2-0-2-2-0---0-0-0-0-0-0-3-3----------------------
G-2-2-2-2-2-2--2-2-2-2-2-2---0-0-0-0-0-0-0-0----------------------
D-2-2-2-2-2-2--2-2-2-2-2-2---2-2-2-2-2-2-2-2----------------------
A-0-0-0-0-0-0--0-0-0-0-0-0---2-2-2-2-2-2-2-2----------------------
E----------------------------0-0-0-0-0-0-0-0------------------------
This is like A, Asus, and a variation on E-minor


{Verse riff #2:}
E-------0-------------0-------------0-------------0-0-0-------------
B-----3---3---3-----3---3---3-----3---3---3-----3---3-3------------
G---2-------------0-------------2-------------0-----0-0-------------
D-3---------3---2---------2---3---------3---2-------2-2------------
A--------------------------------------------------------------------
E--------------------------------------------------------------------


{Bridge riff:}
E-2-2-3-5--2-2-3-5--3-3-3-2-2-2-2-2-------2-0---------------------
B-3-3-3-3--3-3-3-3--3-3-3-3-3-3-3-3-----3-------------------------
G-2-2-2-2--2-2-2-2--2-2-2-2-2-2-2-2-0-2---------------------------
D-0-0-0-0--0-0-0-0--0-0-0-0-0-0-0-0-------------------------------
A--------------------------------------------------------------------
E--------------------------------------------------------------------
The fourth verse begins the same way as the other three and fades out
repeating the A / Em stuff.

---
Intro: {main riff}

{Main riff}
Empty prayer, empty mouths, combien reaction
Empty prayer, empty mouths, talk about the passion
Not everyone can carry the weight of the world
Not everyone can carry the weight of the world

{Verse riff #1}
Talk about the passion
Talk about the passion

{Main riff}
Empty prayer, empty mouths, combien reaction
Empty prayer, empty mouths, talk about the passion
{Verse riff #2:}
Combien, combien, combien de temps?

{Verse riff #1}
Talk about the passion
Talk about the passion

{Bridge riff}

{Main riff}
Not everyone can carry the weight of the world
Not everyone can carry the weight of the world
{Verse riff #2:}
Combien, combien, combien de temps?

{Verse riff #1}
Talk about the passion
Talk about the passion
Talk about the passion
Talk about the passion
Talk about the passion
Talk about the passion

 

CARNIVAL OF SORTS (BOX CARS)

A* = Play A/Asus2/Asus4 variations (listen to song to get the feel of it)

{Opening riff:}
(B) --------0-----
(G) ------0---0---- (G) -------0--0---
(D) -----4---4--4-- X 3 then.. (D) -----4------4-
(A) -7-7----------- (A) -7-7-----------

{Chorus riff}:
(B) --2-2-3-2-0---
(G) ------------2-

----

{Intro}: Opening riff


Bm / A D G A* (x 2)


{Bm A D G A* progression}
There's a secret stigma, reaping wheel.
Diminish, a carnival of sorts.
Chronic town, poster torn, reaping wheel.
Stranger, stranger to these parts.

G A Bm A
Gentlemen don't get caught, cages under cage
G A
Gentlemen don't get caught
Bm G A/Asus4 {chorus riff}
Boxcars (are pulling) out of town
Bm G A/Asus4 {chorus riff}
Boxcars (are pulling) out of town
Bm G A/Asus4 {chorus riff}
Boxcars (are pulling) out of town



{Bm A D G A* progression}
There's a secret stigma, reaping wheel.
Diminish, a carnival of sorts.
Chronic town, poster torn, reaping wheel.
Stranger, stranger to these parts.

G A Bm A
Gentlemen don't get caught, cages under cage
G A
Gentlemen don't get caught
Bm G A/Asus4 {chorus riff}
Boxcars (are pulling) out of town
Bm G A/Asus4 {chorus riff}
Boxcars (are pulling) out of town
Bm G A/Asus4 {chorus riff}
Boxcars (are pulling) out of town


{opening riff}
Cages under, cages under, cages under cage
Cages under, cages under, cages under cage


G A Bm A
Gentlemen don't get caught, cages under cage
G A
Gentlemen don't get caught
Bm G A/Asus4 {chorus riff}
Boxcars (are pulling) out of town
Bm G A/Asus4 {chorus riff}
Boxcars (are pulling) out of town
Bm G A/Asus4 {chorus riff}
Boxcars (are pulling) out of town


{Bm A D G A* progression}
There's a secret stigma, reaping wheel.
Stranger, stranger to these parts.
Chronic town, poster torn, reaping wheel.
Diminish, stranger.


G A Bm A
Gentlemen don't get caught, cages under cage
G A
Gentlemen don't get caught
Bm G A/Asus4 {chorus riff}
Boxcars (are pulling) out of town
Bm G A/Asus4 {chorus riff}
Boxcars (are pulling) out of town
Bm G A/Asus4 {chorus riff}
Boxcars (are pulling)
Bm G A/Asus4 {chorus riff}
out of town.....
Bm G A/Asus4 {chorus riff}
Boxcars (are pulling)
Bm G A/Asus4 {chorus riff}
Carnival of sorts
Bm G A/Asus4 {chorus riff}
out of town.....
Bm G A/Asus4 {chorus riff}
out of town.....

 

DOWNLOAD TYZDNA


R.E.M. - IHT_U_EDIYTW [dubmix]
DOWNLOAD


FLASH PLAYER

flash music player

ANKETA

Vas favorit spomedzi doposial zverejnenych skladieb?

Oh My Heart
Mine Smell Like Honey
Discoverer
Uberlin
It Happend Today

Predbezne vysledky


MAILINGLIST

Chcete byť vždy v čas informovaný o novinkách a aktualitách okolo R.E.M.?
Zaregistrujťe sa!




VÝROKY



FOTO 1/2-MESIACA



CHAT


WEB NEWS


26.01. 2011 - Nova anketa


PARTNERI


Nočná Hudba

Codegravity

Radiohead.sk

Hudba



ICQ


Up 132-246-975
Majk 94-967-086


INFO

Nastaviť ako homepage
Zaradiť medzi obľúbené
Zobrazení za dnes
143
Aktuálna návšteva
2 ludia

Copyright © 2001-2004, R.E.M. fans Czechoslovakia. Design by Up