TABULATURY | Monster
WHAT'S THE FREQUENCY, KENNETH?

Intro: | D A | G | D A | G | (the "A" chord is just played once)

A D Bm G A D A G
"What's the frequency, Kenneth?" is your Benzedrine, uh-huh
A D Bm G A D Bm E
I was brain-dead, locked out, numb, not up to speed
G A
I thought I'd pegged you an idiot's dream
G A
Tunnel vision from the outsider's screen
D A D G A A G A
I never understood the frequency, uh-huh
D A D G A A G A D
You wore our expectations like an armored suit, uh-huh


A D Bm G A D A *Fill1 G
I'd studied your cartoons, radio, music, tv, movies, magazines
A D Bm G A D Bm *Fill2 E
Richard said, "Withdrawal in disgust is not the same as apathy"
G A
A smile like the cartoon, tooth for a tooth
G A
You said that irony was the shackles of youth
D A D G A A G A
You wore a shirt of violent green, uh-huh
D A D G A A G A
I never understood the frequency, uh-huh


Chords over solo: Bm A (x3)
A A G A

Solo:

(grad. release)
e-----------------------------|-------------------------------|-
B-----------------------------|--------------7----------------|-
G---7b-----(7)----(7)------6--|--6--4--7---------4---4--4--4--|-
D-----------------------------|-------------------------------|-
A-----------------------------|-------------------------------|-
E-----------------------------|-------------------------------|-

(grad. bend)
e------------------------|-------------------------------|-
B------------------------|-------------------------------|-
G---4------7b---(7)--4---|--7b------------------7--------|-
D-------7----------------|-------------------------7--7--|-
A------------------------|-------------------------------|-
E------------------------|-------------------------------|-


e---------------------|----------------|-------------|--------------|
B------------------7--|----------------|---7---------|--------------|
G------4---4---7------|--4---7h6---7---|----------4--|-9b----(9)--7-----------|
D--7------------------|----------------|-------------|---------------9--(9)\7-|
A---------------------|----------------|-------------|--------------|
E---------------------|----------------|-------------|--------------|


e------------------------|------------|-
B------------------------|------8b----|-
G------------------------|------7b----|-
D--5------------7b--(7)--|------------|-
A------------------------|------------|-
E------------------------|------------|-


A D Bm G A D A *Fill1 G
"What's the frequency, Kenneth?" is your Benzedrine, uh-huh
A D Bm G A D Bm *Fill2 E
Butterfly decal, rearview mirror, dogging the scene
G A
You smile like the cartoon, tooth for a tooth
G A
You said that irony was the shackles of youth
D A D G A A G A
You wore a shirt of violent green, uh-huh
D A D G A A G A
I never understood the frequency, uh-huh
D A D G A A
You wore our expectations like an armored suit, uh-huh
G A
I couldn't understand
D A D G A A
You said that irony was the shackles of youth, uh-huh
G A
I couldn't understand
D A D G A A
You wore a shirt of violent green, uh-huh
G A
I couldn't understand
D A D G A A G A
I never understood, don't fuck with me, uh-huh

End on D.


Fill 1:

e------------------
B------------------
G----9b---(9)------
D--------------7---
A------------------
E------------------


Fill 2:

e-----------------
B-----------------
G-----------------
D------5h4--------
A-------------7---
E-----------------


Rhythm Fill 1:

w/ amp tremolo
e-------------------------
B-------------------------
G-----2-------------------
D-----2-------------------
A-----0-------------------
E-------------------------

 

CRUSH WITH EYELINER

CHORDS

e|-(0)----3-----x-----x-----0-----3----
b|--x-----3-----3-----4-----0-----3----
g|--2-----0-----2-----4-----x-----0----
D|--2-----0-----0-----4-----2-----0----
A|--0-----x----(0)----2-----2-----2----
E|--x-----3-----x-----x-----0-----3----

A5 G5 D5 B E5 G

INTRO

e|---------------------|------------------------|
b|---------------------|------------------------|
g|---------------------|------------------------|
D|---------------------|------------------------|
A|---------------------|------------------------|
E|---------------------|------------------------|

A5 (Let ring, with amp. tremolo, for 2 bars..........)


e|--x----x-----3----3-----|--x----x-------------|--x----------3----------|--x------------------------|
b|--x----x-----3----3-----|--3----3-------------|--x----------3----------|--3------------------------|
g|--2----2--0--0----0--0--|--2----2--4b5---4--0-|--2----------0----------|--2------4b5--4b5--4--0----|
D|--2----2--0--0----0--0--|--0----0-------------|--2----------0----------|--0------------------------|
A|--0----0-----x----x-----|---------------------|--0----------x----------|---------------------------|
E|--x----x-----3----3-----|---------------------|--x----------3----------|---------------------------|

A5 G5 D5 A5 G5 D5


VERSE

#1) I know you... I know you've seen...
#2) I am..... I'm infat............
#3) She's a sad... She's three miles.........
e|--x----------3----------|--x------------------|--x----------3----------|--x------------------------|
b|--x----------3----------|--3--------------0---|--x-------0--3-------0--|--3--------------------0---|
g|--2----------0-------0--|--2--------------0---|--2-------0--0-------0--|--2--------------------0---|
D|--2----------0-------0--|--0--------------0---|--2-------0--0-------0--|--0--------------------0---|
A|--0----------x----------|---------------------|--0----------x----------|---------------------------|
E|--x----------3----------|---------------------|--x----------3----------|---------------------------|

A5 G5 D5 A5 G5 D5

#1) She's a sad tomato. She's three miles of bad road.
#2) It's all.......... She's all.........
#3) She's her own....... That gets me.............
e|--x----------3----------|--x------------------|--x----------3----------|--x------------------------|
b|--x----------3----------|--3--------------0---|--x-------0--3-------0--|--3--------------------0---|
g|--2----------0-------0--|--2--------------0---|--2-------0--0-------0--|--2--------------------0---|
D|--2----------0-------0--|--0--------------0---|--2-------0--0-------0--|--0--------------------0---|
A|--0----------x----------|---------------------|--0----------x----------|---------------------------|
E|--x----------3----------|---------------------|--x----------3----------|---------------------------|

A5 G5 D5 A5 G5 D5

#1) Walkin' down the street. Will I never meet her.
#2) What position.... Cop an......
#3) What can I..... Life is strange..........
e|--x----------3----------|--x------------------|--x----------3----------|--x------------------------|
b|--x-------0--3-------0--|--3------------------|--x-------0--3-------0--|--3------------------------|
g|--2-------0--0-------0--|--2-------4b5---4--0-|--2-------0--0-------0--|--2-----4--4b5b4b5b4-------|
D|--2-------0--0-------0--|--0------------------|--2-------0--0-------0--|--0------------------------|
A|--0----------x----------|---------------------|--0----------x----------|---------------------------|
E|--x----------3----------|---------------------|--x----------3----------|---------------------------|

A5 G5 D5 A5 G5 D5

#1) She's a real woman, child. Oh, my kiss-breath turpintine.
#2) How can I......... That I'm.........
#3) What can I....... To make her.......
e|--x----------3----------|--x------------------|--x----------3----------|--x------------------------|
b|--x-------0--3-------0--|--3------------------|--x-------0--3-------0--|--3------------------------|
g|--2-------0--0-------0--|--2-------4b5---4--0-|--2-------0--0-------0--|--2-------4b5b4--2---4/----|
D|--2-------0--0-------0--|--0------------------|--2-------0--0-------0--|--0------------------------|
A|--0----------x----------|---------------------|--0----------x----------|---------------------------|
E|--x----------3----------|---------------------|--x----------3----------|---------------------------|

A5 G5 D5 A5 G5 D5


e|----7-------7-------7---|------7------7-------|
b|----7-------7-------7---|------7------7-------|
g|--/9-----9b10----9b10---|--9b10---9b10--------|
D|------------------------|---------------------|
A|------------------------|---------------------|
E|------------------------|----------------3--2-|

B B B B B B B


CHORUS

#1) I am smitten. I'm the real thing.
#2) I am smitten. I'm the real thing.
#3) I am smitten. I'll do anything.
#4) I am smitten. Oh, you know me.
#5) I am smitten. I'm the real thing.
e|------0----x------------|---------------------|------0------x----------|--3----3---3---3---3---3---|
b|------0----3------------|---------x-----------|------0------3--------0-|--3----3---3---3---3---3---|
g|--x---x----2------------|----0-0--2-----------|------x------2--------0-|--0----0---0---0---0---0---|
D|--2---------------------|----0----2-----------|----------------------0-|--0----0---0---0---0---0---|
A|--2---------------------|---------0-----------|----------------------0-|--x----x---x---x---x---x---|
E|--0---------------------|-2h3-------------3b4-|--0---------------------|--3----3---3---3---3---3---|

E5 D5 G5 A5 E5 D5 G5

#1) Have you seen her come around? My crush, with eyeliner.
#2) We all invent..........
#3) Oh my kiss........ My crush, ....
#4) I can be your........ My crush, ....
#5) Won't you be......... My crush, ....
e|------0----x------------|---------------------|--3---------------------|---------------------------|
b|------0----3------------|---------x-----------|--3---------------------|---------------------------|
g|--x---x----2------------|----0-0--2-----------|--0---------------------|---------------------------|
D|--2---------------------|----0----2-----------|--0---------------------|---------------------------|
A|--2---------------------|---------0-----------|--x---------------------|---------------------------|
E|--0---------------------|-2h3-----------------|--3---------------------|---------------------------|

E5 D5 G5 A5 G5


END

e|------0----x------------|---------------------|------0------x----------|--3----3---3---3---3---3---|
b|------0----3------------|---------x-----------|------0------3--------0-|--3----3---3---3---3---3---|
g|--x---x----2------------|----0-0--2-----------|------x------2--------0-|--0----0---0---0---0---0---|
D|--2---------------------|----0----2-----------|----------------------0-|--0----0---0---0---0---0---|
A|--2---------------------|---------0-----------|----------------------0-|--x----x---x---x---x---x---|
E|--0---------------------|-2h3-------------3b4-|--0---------------------|--3----3---3---3---3---3---|

E5 D5 G5 A5 E5 D5 G5

e|------0----x------------|---------------------|--3---------------------|---------------------------|
b|------0----3------------|---------x-----------|--3---------------------|---------------------------|
g|--x---x----2------------|----0-0--2-----------|--0---------------------|---------------------------|
D|--2---------------------|----0----2-----------|--0---------------------|---------------------------|
A|--2---------------------|---------0-----------|--x---------------------|---------------------------|
E|--0---------------------|-2h3-----------------|--3---------------------|------------------0--3p2---|

E5 D5 G5 A5 G5

e|------------------------|
b|------------------------|
g|------------------------|
D|--2---------------------|
A|--2---------------------|
E|--0---------------------|

E5

SOLO

e|-----------7------------|----------------------|---------7------------|---------------------------|
b|-----------7------------|----------------------|---------7------------|---------------------------|
g|------------------------|----------------------|----------------------|---------------------------|
D|--9b10-----------9\7----|---7b8b7--5-----------|--9------------9\7----|---7b8b7---5---------------|
A|------------------------|----------------7p5---|----------------------|------------------7p5------|
E|------------------------|----------------------|----------------------|---------------------------|

E5 D5 E5 D5

e|--------10----10----10--|-------12----12----12-|-15-------------------|---------------------------|
b|----------10----10------|----------12----12----|-15-------------------|---------------------------|
g|--6/11------11----11----|-11/13------13----13--|-12-------------------|---------------------------|
D|------------------------|----------------------|----------------------|---------------------------|
A|------------------------|----------------------|----------------------|---------------------------|
E|------------------------|----------------------|----------------------|---------------------------|

D5 E5 G5


INTRO
VERSE #1
CHORUS #1
VERSE #2
CHORUS #2
SOLO
VERSE #3
CHORUS #3
CHORUS #4
CHORUS #5
END

e|--------7---------------------|-----10----10----10------12----12----12--15-|
B|--7-----7---------------------|-------10----10------------12----12------15-|
G|--9b11-----r9--7b9r7-5v-------|-9h11----11----11---11h13----13----13----12-|
D|-gradual-----------------7----|--------------------------------------------|
A|------------------------------|--------------------------------------------|
E|-----play this part twice-----|--------------------------------------------|


e|-7--7--x--5--5--x--3--3-/-5--5--5--x-------|
B|-9--9--x--7--7--x--3--3-/-5--5--5--x-------|
G|-9--9--x--7--7--x--4--4-/-6--6--6--x-------|
D|-9--9--x--7--7--x--5--5-/-7--7--7--x--etc.-|
A|-7--7--x--5--5--x--5--5-/-7--7--7--x-------|
E|-------------------3--3-/-5--5--5--x-------|


e|------------0--------------------|-----------
B|------------0--------------------|-----------
G|-4--4--4--4-4---4-4-4------------|-----------
D|-4--4--4--4-4---4-4-4------------|--chorus---
A|-2--2--2--2-2---2-2-2--2-0-------|-----------
E|---------------------------2qbr2-|-----------
qb=quarterbend

Electric guitar fill-in during 2nd & 3rd stanzas:

b=bend
Add Overdrive for great sound without amp tremelo

|-----hold-----|
e----2b----------------------------------
B----3b--------------0-----2-------------
G----2b---------------0----2-------------
D---------------------0----2-------------
A----------------------------------------
E----------------------------------------

Intro: A (with feedback, etc)

A G D (x 2 with delay)

A G D
I know you.
A G D
I know you've seen her.
A G D
She's a sad tomato
A G D
She's three miles of bad road
A G D
Walking down the street
A G D
Will I never meet her?
A G D
She's a real woman child
A G D
Oh my kiss breath turpentine

B

E D G A
I am smitten
E D G
I'm the real thing (I'm the real thing).
E D G A
Have you seen her come around?
G
My crush with eyeliner.

A G D
I'm in like.
A G D
I'm in-fatuated
A G D
It's all too much - the pressure
A G D
She's all that I can take.
A G D
What position should I wear
A G D
and cop an attitude? (you faker)
A G D
How can I convince her? (faker)
A G D
That I'm invented, too? yeah.

B

E D G A
I am smitten
E D G
I'm the real thing (I'm the real thing)
E D G A G
We all invent ourselves, and
[uh,you know me]

BRIDGE: B,A (2x) D,high E,G

(Solo over bridge):

e-------12----------------
B-----------9--7-7bhr--5----- (2x) then
G--9bh---------------------7--5-
D--9bh----------------------

e-------10--10--11--------12--12--12---
B---------10--10------------12--12---- G
G---sl/11---11--11---sl/13----13--13--
D--------------------------------------


A G D
Yeah, she's a sad tomato
A G D
She's three miles of bad road
A G D
She's her own invention (She's her own invention)
A G D
That gets me in the throat
A G D
What can I make myself be?
A G D
And Life is strange, yeah life is strange
A G D
What can I make myself be (Faker)
A G D
To make her mine?

B

E D G A
I am smitten
E D G
I'll do anything (I'll do anything)
E D G A
Oh my kiss breath turpentine,
G
my crush with eyeliner

E D G A
I am smitten
E D G
And you know me (Yeah, you know me)
E D G A
I could be your Frankenstein
G
my crush with eyeliner

E D G A
I am smitten
E D G
I'm the real thing (I'm the real thing)
E D G A
Won't you be my valentine?
G
My crush with eyeliner


E D G A E D G E A G A G

End on E.

 

KING OF COMEDY

D
Make your money with a suit and tie
A
Make your money with a shrewd denial
C G
Make your money expert advice,
G A (before chorus hold 1st A on this line)
If you can wing it

D
Make your money with a power ply
A
Make your money with a buyout bribe
C G G A
Make it lie as long as you mean it

Chorus:
Gm C G
I'm not King of Comedy
Gm C G
Grease the pig, give a squeeze (squeeze me)

D
Make your money with exploitation
A
Make it holy illumination
C G
Say a prayer at every station
G A
Don't forget to ask for mercy

D
Make your money with a pretty face
A
Make it easy with product placement
C G
Make it charged with controversy
G A
I'm straight, I'm queer, I'm bi


Gm C G
I'm not king of comedy,
Gm C G
I'm not your magazine,
Gm C G
I'm not your television


{Bridge:} G5 Slide (8x)

D
Make your money, make it rich
A
make it young and make it quick
C G
Make your money on the jukebox, baby,
G A
it's pick up sticks

D
Make your enemies make your moves
A
Make your critics fumble through
C G
Make it smart and make it schmooze
G A
Make it look easy

Gm C G
I'm not king of comedy,
Gm C G
I'm not your magazine,
Gm C G
I'm not your television
Gm C G
I'm not your movie screen
Gm C G
I'm not commodity (all together now)

{Following chords are picked:}
Gm C G
I'm not commodity
Gm C G
I'm not commodity
Gm C G
I'm not commodity
Gm C G
I'm not commodity

 

I DON'T SLEEP, I DREAM

Chords Used:
G5 Em A
e|--------------5--|
b|--------------5--|
G|--0------0----6--|
D|--0------2----7--|
A|--x------2----7--|
E|--3------0----5--|


Riff A:
(A)
e:-------------7--------0-|-----------------0--------|
B:----5-----------5-------|-----5-----0-h5-----5-----|
G:-------0----------------|--------0-----0--------0-*|
D:-7--------7--------7----|-------------------------*|
A:------------------------|--------------------------|
E:------------------------|--------------------------|
e e e e e e e q . e e e e e e e

Verse 1:
{Riff A x 8}
I'm looking for an interruption,
do you believe?
You looking, did my dreams
Be prepared for anything
You come into my little scene
Hooray hooray hip hip hooray
There's one thing I can guarantee:
You won't have to dig, dig too deep

Chorus:
G5 Em(let ring) G5
e|-------------------------|--------------------------||
B|-------------------------|-------------------------o||
G|--0----0-----------------|----------------------0---||
D|--0----2-----------------|----------------------0---||
A|--x----2-----------------|----------------------x--o||
E|--3----0-----------------|----------------------3---||
Said leave me to lay, but touch me deep,
G Em
I don't sleep, I dream
G Em G Em
I'll settle for a cup of coffee, but you know what I really need

(each chorus has slight variations - sometimes an extra strum of G5 at the
start, etc.)

Verse 2:
{Riff A x 8}
Are you looking to drive my dreams?
You here to run my screens?
You come, deliver my demons
Hooray hooray hip hip hooray
Are you coming to ease my headache?
Do you give good head?
Am I good in bed?

Chorus:
G Em
I don't know, I guess so
G Em
I don't sleep, I dream
G Em G Em
I'll settle for a cup of coffee, but you know what I really need

Verse 3:
{Riff A x 5}
I'm looking for an interruption,
can you believe?
Some medicine for my headache
Hooray hooray hip hip hooray

Riff B(guitar 2):
A
e|--5--5--5--5--5--5--5--5--|--5--5--5--5--5--5--5--5--||
b|--5--5--5--5--5--5--5--5--|--5--5--5--5--5--5--5--5--||
G|--6--6--6--6--6--6--6--6--|--6--6--6--6--6--6--6--6--||
D|--7--7--7--7--7--7--7--7--|--7--7--7--7--7--7--7--7--||
A|--7--7--7--7--7--7--7--7--|--7--7--7--7--7--7--7--7--||
E|--5--5--5--5--5--5--5--5--|--5--5--5--5--5--5--5--5--||
e e e e e e e e e e e e e e e e

{Riff A + Riff B x 3}
I'm pitching for a new direction
Pinch me when I wake
Don't tell me my dreams are fake

Chorus:
G Em
you leave me to lay, you touch me deep,
G Em
I don't sleep, I dream
G Em G Em
I'll settle for a cup of coffee, but you know what I really need
G Em
Leave me to lay, but touch me deep,
G Em
I don't sleep, I dream
G Em G Em
I'll settle for a cup of coffee, but you know what I really need

Outro:
{Riff A x4}

 

STAR 69

B 799877
E x79997
A 577655
F# 244322
A2 577600


Intro: | B | E | A | F# |
| B | E | A | A2 |


B E A F# B E A A2
You don't have to take the bar exam to see
B E A F# B E A A2
What you've done is Ignoramus 1 0 3
B E A F#
What've I got to hang my hat on
B E A A2
you don't have a pot to pee in, all this just to be your friend.
B E A F#
I was there until the end.
B E A A2
extortion and arson, petty larceny.

E F# E F# E F# A2
I know you called. I know you called. I know you called.
E F# E F# E F# A2
I know you called. I know you called. I know you hung up my line.

Star 69.


| B | E | A | F# |
| B | E | A | A2 |


B E A F#
I know all about the warehouse fire.
B E A A2
I know squirrelys didn't chew the wires.
B E A F#
Three people have my number, the other two were with me.
B E A A2
I don't like to tell-tell but I'm not your patsy.
B E A F#
This time you have gone too far with me.

E F# E F# E F# A2
I know you called. I know you called. I know you called.
E F# E F# E F# A2
I know you called. I know you called. I know you hung up my line.

Star 69.

{Break:} B-3bw3r(pickoff)0-


| B | E | A | F# |
| B | E | A | A2 |


B E A F# B E A A2
Why'd you put your quarter down on me?
B E A F# B E A A2
This reads like some dork Inside Edition, Hard Copy.
B E A F#
I can't be your character witness, I can't be your alibi.
B E A A2
Doorbell rings it's the FBI, we learned spy versus spy
B E A F#
You my friend are guilty as can be.


E F# E F# E F# A2
I know you called. I know you called. I know you called.
E F# E F# E F# A2
I know you called. I know you called. I know you hung up my line.
E F# E F# E F# A2
I know you called. I know you called. I know you called.
E F# E F# E F# A2
I know you called. I know you called. I can't be your alibi.
| B | E | fast slide down |
Star 69.

 

STRANGE CURRENCIES

Fill:
e-|-----------
B-|-----------
G-|-----------
D-|--2p0---0--
A-|------3----
E-|-----------

Pattern 1:
C Fmaj7 C Fmaj7
e-|--------3-----------3-----|-------3-----------3------
B-|----------1-------1---1---|---------1-------1---1----
G-|------0-----0---2-------2-|-----0-----0---2-------2--
D-|----2---------3-----------|--2----------3------------
A-|--3-----------------------|-3------------------------
E-|--------------------------|--------------------------

Pattern 2:
C Fmaj7 Am7 Dm G
e-|--------3-----------------|-------1-----------3------
B-|----------1-------1-----1-|-----3---3-------3---3----
G-|------0-----0---2-----0---|---2-------2---0-------0--
D-|----2---------3-----2-----|-0------------------------
A-|--3-----------------------|--------------------------
E-|--------------------------|-------------3------------

[Fill] [Pattern 1]

[Pattern 1]
I don't know why you're mean to me
[Pattern 2]
When I call on the telephone
[Pattern 1]
I don't know what you mean to me, but I want to turn you on
[Pattern 2]
turn you up, figure you out, I want to take you on


C G F C Dm G
E|--3-----3-----1-----3---|------1-----------3-----
B|----3-----3-----1-----3-|----3---2-------3---3---
G|5-----------------5-----|--2-------3---0-------0-
D|5-----5-----3-----5-----|0-----------------------
A|3-----5-----3-----3-----|------------------------
E|------3-----1-----------|------------3-----------
These words, "You will be mine"

C G F C Dm G
E|--3-----3-----1-----3---|------1-----1-----1-----|3-----3---3---------|
B|----3-----3-----1-----3-|3---3---3-----3-----3---|3---3---3-3---------|
G|5-----------------5-----|2-2-------2-----2-----2-|0-0-------0---------|
D|5-----5-----3-----5-----|0-----------------------|-------------2p0---0|
A|3-----5-----3-----3-----|------------------------|-----------------3--|
E|------3-----1-----------|------------------------|3---------3---------|
These words, "You will be mine," all the time,


[Pattern 1]
The Fool might be my middle name
[Pattern 2]
But I'd be foolish not to say
[Pattern 1]
I'm going to make whatever it takes, ring you up, call you down, sign your
name, secret love,
[Pattern 2]
make it rhyme, take you in, and make you mine.


C G F C Dm G
E|--3-----3-----1-----3---|------1-----------3-----
B|----3-----3-----1-----3-|----3---2-------3---3---
G|5-----------------5-----|--2-------3---0-------0-
D|5-----5-----3-----5-----|0-----------------------
A|3-----5-----3-----3-----|------------------------
E|------3-----1-----------|------------3-----------
These words, "You will be mine"

C G F C Dm G
E|--3-----3-----1-----3---|------1-----1-----1-----|3-----3---3---------|
B|----3-----3-----1-----3-|3---3---3-----3-----3---|3---3---3-3---------|
G|5-----------------5-----|2-2-------2-----2-----2-|0-0-------0---------|
D|5-----5-----3-----5-----|0-----------------------|-------------2p0---0|
A|3-----5-----3-----3-----|------------------------|-----------------3--|
E|------3-----1-----------|------------------------|3---------3---------|
These words, "You will be mine," all the time,

Am G Am G
E|------0-----3-----3-----|------0-----3-----3-----|
B|1-------1---3-------3---|1-------1---3-------3---|
G|2---------2-0---------0-|2---------2-0---------0-|
D|2-----------0-----------|2-----------0-----------|
A|0-----------X-----------|0-----------X-----------|
E|X-----------3-----------|X-----------3-----------|

I tripped and fell, did I fall.

Am F C Dm G G
E|------0-----------------|1-----1-----1-----1-----|3-----3-----3-------|
B|1-------1---------------|3---3---3-----3-----3---|3---3---3---3-------|
G|2---------2-------5-----|2-2-------2-----2-----2-|0-0------0--0-------|
D|2-----------3-----5-----|0-----------------------|0-----------0-------|
A|0-----------3-----3-----|------------------------|--------------------|
E|X-----------1-----------|------------------------|3-----------3-------|
What I want to feel, I want to feel it now.


[Pattern 1]
You know with love comes strange currencies,
[Pattern 2]
And here is my appeal:
[Pattern 1]
I need a chance, a second chance, a third chance, a fourth chance,
a word, a signal, a nod, a little breath
[Pattern 2]
just to fool myself, to catch myself, to make it real, real

C G F C Dm G
E|--3-----3-----1-----3---|------1-----------3-----
B|----3-----3-----1-----3-|----3---2-------3---3---
G|5-----------------5-----|--2-------3---0-------0-
D|5-----5-----3-----5-----|0-----------------------
A|3-----5-----3-----3-----|------------------------
E|------3-----1-----------|------------3-----------
These words, "You will be mine"

C G F C Dm G
E|--3-----3-----1-----3---|------1-----1-----1-----|3-----3---3----|
B|----3-----3-----1-----3-|3---3---3-----3-----3---|3---3---3-3---|
G|5-----------------5-----|2-2-------2-----2-----2-|0-0-------0----|
D|5-----5-----3-----5-----|0------------------|-------------2p0---0|
A|3-----5-----3-----3-----|-------------------|-----------------3--|
E|------3-----1-----------|------------------------|3---------3-----|
These words, "You will be mine," all the time, oh

C G F C Dm G
E|--3-----3-----1-----3---|------1-----------3-----
B|----3-----3-----1-----3-|----3---2-------3---3---
G|5-----------------5-----|--2-------3---0-------0-
D|5-----5-----3-----5-----|0-----------------------
A|3-----5-----3-----3-----|------------------------
E|------3-----1-----------|------------3-----------
These words, "You will be mine"

C G F C Dm G
E|--3-----3-----1-----3---|------1-----1-----1-----|3-----3---3----|
B|----3-----3-----1-----3-|3---3---3-----3-----3---|3---3---3-3---|
G|5-----------------5-----|2-2-------2-----2-----2-|0-0-------0----|
D|5-----5-----3-----5-----|0-----------------------|-------------2p0---0|
A|3-----5-----3-----3-----|------------------------|-----------------3--|
E|------3-----1-----------|------------------------|3---------3-----|
These words, they haunt me, hunt me down, catch in my throat, make me pray,
say, love's comfined, oh

 

TONGUE

Capo 1st fret

E A E A
call my name, here I come.
E A G#m
90 to nothing, watch me run.

you call.
I am ashamed to say.

ugly girls know their fate.
anybody can get laid.
you want a room with a fire escape.
I want to tell you how much I hate this.

D G D G D F#m G F#m A
don't leave that stuff all over me. it pains me.

please just leave it.
I should toss that vanity license plate.
toss that make-up painted face.
box those poems, chocolate cake.
scratch that name on the record player.
please just leave me be.
don't lay that stuff all over me.
it crawls all over. all over me.

Chords over solo: (Dsus2)? (A?) E A G F#m-A

call my name, here I come.
your last ditch lay, will I never learn?
caramel turn on a dusty apology.
it crawls all over me.
you turn all over.
it pains me.
please just leave it.

 

BANG AND BLAME

Chords used:
Amadd2: xx7500
G6: xx5430
A, C, G, B, Bb chords: Use E-shaped barre chords...


{Intro}: (Gtr. 1: w/ light dist. & delay set at 484 milliseconds)
Am
E-|----------------------------|-------------------------|
B-|----------------------------|-------------------------|
G-|-o----5---(5)---(5)---(5)---|--(5)---(5)---(5)---(5)--|
D-|-o----7---(7)---(7)---(7)---|--(7)---(7)---(7)---(7)--|
A-|----------------------------|-------------------------|
E-|----------------------------|-------------------------|

G5
E-|-------------------------|----------------------------|
B-|-------------------------|----------------------------|
G-|---7---(7)---(7)---(7)---|--(7)---(7)---(7)---(7)---o-|
D-|---5---(5)---(5)---(5)---|--(5)---(5)---(5)---(5)---o-|
A-|-------------------------|----------------------------|
E-|-------------------------|----------------------------|


{Gtr2 (Clean tone)}:

Amadd2
If you could see yourself now, baby
G6 Amadd2
it's not my fault. You used to be so in control.
G6
You're going to roll right over this one.
G6
Just roll me over, let me go. You're laying blame.
Amadd2
Take this as no, no, no, no, no.

A C A G
You bang, bang, bang, bang, bang then blame, blame, blame.
A C B Bb A G6
You bang, bang, bang, bang, bang. It's not my thing so let it go.

Amadd2 G6
If you could see yourself now baby, the tables have turned.
Amadd2
the whole world hinges on your swings.
G6 Amadd2
your secret life of indiscreet discretions.
G6 Amadd2
I'd turn the screw and leave the screen. Don't point your finger.
G6
You know that's not my thing. You came to

A C A G
bang, bang, bang, bang, bang then blame, blame, blame.
A C Badd4
You bang, bang, bang, bang, bang. It's not my thing so let it go now.


{Interlude}: (Gtr w/ distorted tone):

E5 let ring...
E-|----------0---------|--------0--------------|
B-|----------0---0-----|-----------0-----------|
G-|-o--------9------9--|--------------8------o-| then....
D-|-o--9--9------------|--9--9-----------9---o-|
A-|----7--7------------|--9--9-----------------|
E-|----0--0------------|--7--7-----------------|
|----------- Play Three Times ------------|

let
ring...
E-|---------0-----|---------------0----------|
B-|------------0--|-(0)--------------0-------|
G-|---------------|------6--------------6----|
D-|---7--7--------|------------------------7-|
A-|---7--7--------|----------7---------------|
E-|---5--5--------|--------------------------|


{Gtr2 (Clean tone)}:

Am G5
You've got a little worry. I know it all too well.
Am G5
I've got your number, but so does every kiss-and-tell
Amadd2 G6
who dares to cross your threshold, or happens on your way,
Amadd2 G6
Stop laying blame. You know that's not my thing.

Amadd2 G6 Amadd2
(Ooh.)_______________ (Ooh.)_______________
G6
You know that's not my thing.

A C A G
You came to bang, bang, bang, bang, bang, then blame, blame, blame.
A C B Bb
Bang, bang, bang, bang, bang. It's not my thing so let it go.

A C A G
You bang, bang, bang, bang, bang, then blame, blame, blame.
A C B Bb E
Bang, bang, bang, bang, bang. It's not my thing so let it go.

A G6

Amadd2 G6
You kiss on me, tug on me, rub on me, jump on me,
Amadd2 G6
You bang on me, beat on me, hit on me, let go on me,
Amadd2 G6
(Ooh.)________________
You let go on me.
Amadd2 G6
(Ooh.)________________


Amadd2 G6
(Ooh.)_____________________________________
E-|------0h5p0-------0h5p0---|--------------|---3p0---------3p0-|
B-|----5-----------5---------|-- --|--------3p0--------|
G-|-o------------------------|-- % --|-------------4-----|
D-|-o------------------------|-- --|-------------------|
A-|--------------------------|-- --|-------------------|
E-|--------------------------|--------------|-------------------|

Repeat
and fade...
E-|-(0)--3p0----3p0---3p0-----|
B-|---------------------------|
G-|-------------------------o-| Rest approx. 15 seconds then...
D-|-------------------------o-|
A-|---------------------------|
E-|---------------------------|


Repeat and fade...
E-|----------2---------------|--------------------|
B-|-------0---------------3--|--(3)---------------|
G-|-o-----------0----4-------|------------------o-| The End.
D-|-o--4---------------------|------------------o-|
A-|--------------------------|--------------------|
E-|--------------------------|--------------------|

 

I TOOK YOUR NAME

Main riff:
e--------------------------------------
B-------------------------------------
G--7--7--7--7-9--9----9-9-9-9-9-9-9-12--
D--7--7--7--7-9--9----9-9-9-9-9-9-9-12-- repeat etc.
A--5--5--5--5-7--7----7-7-7-7-7-7-7-10--
E--0-open E is played throughout riff---

there's a fill in there somewhere, over the choruses and ending:
e-------------------------
B--------5--5--3----------
G--0-2-4---------4-2--2-4-4--
D--------------------------

Alternate fill (from David Wagner):

b-------3-3h5-3-3h5-3
g---2-4---------------4-2--2h4


[Riff]
I wore the clothes you wanted
I took your name
If there is some confusion, who's to blame?


[Riff]
I signed your living will
I smiled your face
I'm ready to close the book on NASA in outer space.


C A
If there is some confusion
Main riff 1x
who's to blame?
C A Main riff 1x
who's to blame?


[Riff]
I sequenced your arrival
I sealed your fate
I pushed the button
and erased your master tape


[Riff]
I wrote the sales pitch
I threw the brake switch
I dragged your big ass
daddy roth car out of that ditch


C A
If there is some confusion
Main riff 1x
who's to blame?
C A Main riff 1x
who's to blame?

{Break:}

B-------------------9s7---------------7s5--
G--9-9-9-9s11-11-11-----7-7-7-7s9-9-9------
D--9-9-9-9s11-11-11-----7-7-7-7s9-9-9------ repeat
A--7-7-7-7s9--9--9------5-5-5-5s7-7-7------


C A D E (repeat)


[Riff]
I crossed your great divide
I stirred your oceans tide
I called your bluff until I blew your circuits mind.



[Riff]
I'll be your albatross,
devil, dog, Jesus, God
I don't wanna be Iggy Pop but if that's what it takes, hey.


C A
If there is some confusion
C A
If there is some confusion
C A
If there is some confusion
Main riff 1x
who's to blame?
C A Main riff 1x
who's to blame?

 

LET ME IN

Em Bm/F#
Yeah, all those stars drip down like butter,
Em Dsus4 D
promises are sweet
Em Bm/F#
We hold out our pans, lift our hands to catch them.
Em C
We eat them up, drink them up, up, up, up


D G C Am D G C
Heyyyyyy, let me in.
D G C Am D G Em
Heyyyyyy, let me in.


Em Bm/F#
I only wish that I could hear you whisper down,
Em Dsus4 D
mister fisherman, to a less peculiar ground.
Em Bm/F#
He gathered up his loved ones and he brought them all around
Em C
to say goodbye, nice try.


D G C Am D G C
Heyyyyyy, let me in. yeah yeah yeah
D G C Am D G Em
Heyyyyyy, let me in. Let me in.


{Break:} D

{Then...Organ arranged for guitar (see end of song for tab):}


Em Bm/F# Em Dsus4 D
I had a mind to try to stop you. Let me in. Let me in.
Em Bm/F#
I've got tar on my feet and I can't see.
Em
All the birds look down and laugh at me.
C
Clumsy, crawling out of my skin.


D G C Am D G C
Heyyyyyy, let me in. yeah yeah yeah
D G C Am D G Em
Heyyyyyy, let me in.
D G C Am D G C
Heyyyyyy, let me in. yeah yeah yeah
D G C Am D G Em
Heyyyyyy, let me in.


{Organ for guitar:}

e-------------------------------
B-------------------8-----------
G--7--9------7-----------9-----7
D-------------------------------

over the last chorus and to the end:
e--------------------------------------------------------------
B------------13--12----------------------------13--12----------
G--12--14------------14--12----------12--14------------14--12--
D-------------------------------14-----------------------------
repeats over chorus chords to end......

 

CIRCUS ENVY

Riff:
d--0-0-10-12---0-0-10-12--13-12-10-
A--0-0-10-12---0-0-10-12--13-12-10- (repeat)
D--0-0-10-12---0-0-10-12--13-12-10-


[Riff]
Here comes that awful feeling again
Welcome the ugly animal.
I hold my breath to what you sing,
My pyro acrobat ball and chain,
I'm not afraid, I messed it, messed it, messed it, messed it up


A G
I've got my telescope head in the haystack
A G
I'm getting tired of your dodgeball circus act
A G NC
Put pepper in my coffee, I forgot to bark on command


[Riff]
Here comes that awful feeling again
Make way for monster jealousy
The strong man kicked sand into my breakfast cereal bowl
I'd spelled your name with Oatios,
he messed it, messed it, messed it, messed it up


A G
I've got my telescope head in the haystack
A G
I'm getting tired of your dodgeball circus act
A G NC
Put pepper in my coffee, I forgot to bark on command


Bridge: | D | F | A | C | | D | F | G | A |
| D | F | A | C | | D | F | G | A |


(you're mean, mean, mean
you tease, tease, tease me)


[Riff]
If I were you I'd really run from me
I really really wish that I were you
When I get loose I'll climb a treee
and drop a load on your head
This monster in me makes me retch, you messed it, messed it up


A G
I've got my telescope head in the haystack
A G
I'm getting tired of your dodgeball circus act
A
Put pepper in my coffee, I forgot to bark
A G NC
Put pepper in my coffee, I forgot to bark on command


(you're mean, mean, mean
you tease, tease, tease me)


{Continue with the bridge progression until end.}

Do you smell jealousy?
Do you smell jealousy, jealousy, jealousy?

{End on riff.}


Riff:

d 0 0 10 12 0 0 10 12 15 12 10 0 0 10 12
A 0 0 10 12 0 0 10 12 15 12 10 0 0 10 12
D 0 0 10 12 0 0 10 12 15 12 10 0 0 10 12

 

YOU

E||--0----------------|-------------------------|--0------3----------|
B||--3----------------|-------------------------|--3------3----------|
G||--2----------------|----------0h2p0----0-----|--2------2----------|
D||--0----------------|----------------4r----0--|--0------0----------|
A||--0----------------|-------------------------|--------------------|
D||--0----------------|-------------------------|--------------------|

DsuDsuDsus
------------------------|--0------0----------|------------0--0--0--|
------------------------|--3------3----------|------------3--3--3--|
------------0-2-0----0--|--2------2----------|------------2--2--2--|
------------------4b----|--0------0----------|------------0--0--0--|
------------------------|--------------------|---------------------|
------------------------|--------------------|---------------------|


--0----0--3----------|--|--|--|--|--|--|--|--|--|--|--|--|--|--|--||
--3----3--3----------|--|--|--|--|--|--|--|--|--|--|--|--|--|--|--||
--2----2--2----------|--|--|--|--|--|--|--|--|--|--|--|--|--|--|--||
--0----0--0----------|--|--|--|--|--|--|--|--|--|--|--|--|--|--|--||
---------------------|--|--|--|--|--|--|--|--|--|--|--|--|--|--|--||
---------------------|--|--|--|--|--|--|--|--|--|--|--|--|--|--|--||


Let the sun beat through the clouds,
Let me kiss you on the mouth.
All my childhood toys with chew marks in your smile.
Let me hold your syrup close to mine.
Let me watch you, Hollywood and Vine.
And I want you like the movies, touch me now.
C
I love you crazy, just keep on.
I love you madly, just keep watch.
You wipe my lips,
{Hold C chord}
You turn me on.

C C C#x D
My attentions are turned to you


Did I dream you were a tourist
in the Arizona sun?
I can see you there with luna moths
and watermelon gum.
I woke up in the sleeping bag,
With nowhere else to run.
You're standing in the bathroom
telling me its all in fun.
C
I love you crazy, just keep on.
I love you madly, just keep watch.
You wipe my lips,
{Hold C chord}
You turn me on.

C C C#x D
My attentions are turned to you


I can whisper in your ear.
I can write a calendar year
I can wing around your Saturn smile, shut out the moon
I walked the tension wire line.
And I learned to disrespect the signs.
And I want you like a Pisces rising, even though
C
I love you crazy, just keep on.
I love you madly, just keep watch.
You wipe my lips,
{Hold C chord}
You turn me on.

C C C#x D
My attentions are turned to you

 

DOWNLOAD TYZDNA


R.E.M. - IHT_U_EDIYTW [dubmix]
DOWNLOAD


FLASH PLAYER

flash music player

ANKETA

Vas favorit spomedzi doposial zverejnenych skladieb?

Oh My Heart
Mine Smell Like Honey
Discoverer
Uberlin
It Happend Today

Predbezne vysledky


MAILINGLIST

Chcete byť vždy v čas informovaný o novinkách a aktualitách okolo R.E.M.?
Zaregistrujťe sa!




VÝROKY



FOTO 1/2-MESIACA



CHAT


WEB NEWS


26.01. 2011 - Nova anketa


PARTNERI


Nočná Hudba

Codegravity

Radiohead.sk

Hudba



ICQ


Up 132-246-975
Majk 94-967-086


INFO

Nastaviť ako homepage
Zaradiť medzi obľúbené
Zobrazení za dnes
92
Aktuálna návšteva
2 ludia

Copyright © 2001-2004, R.E.M. fans Czechoslovakia. Design by Up