TABULATURY | Out Of Time
RADIO SONG

Hey, I can't find nothing on the radio
Yo! turn to that station

Intro riff:

E-----11-------11-------11-------11-----
B---13--13---13--13---14--14---14--14---
G-13-------13-------13-------13---------

{play intro riff}:
The world is collapsing around our ears
I turned up the radio, but I can't hear it.

F7
When I got to the house and I called you out
F7
I could tell that you had been crying, crying.
F7
It's that same sing song on the radio. It makes me sad.
Bbsus2 Bb7sus2 Bbsus2 Bb7sus2 Bbsus2 Bb7sus2 Bbsus2
I meant to turn it off, to say good-bye, to leave in quiet
Bb7sus2 Bbsus2 F7
that radio song, hey, hey, hey

{play intro riff}
I've everything to show. I've everything to hide. Look into my eyes. Listen.

| Bb5 | Eb5 |

F7 F7
When I got to the show (yo ho ho) I could tell that you had been crying, crying
F7 F7
It's that same sing song, and the DJ sucks. It makes me sad.
Bbsus2 Bb7sus2 Bbsus2 Bb7sus2 Bbsus2 Bb7sus2 Bbsus2
I tried to turn it off. To say goodbye, my love,
Bb7sus2 Bbsus2 F7
that radio song, hey, hey, hey


{play intro riff}
The world is collapsing around our ears
I turned up the radio, But I can't hear it.

| Bb5 | Eb5 |

F7
Yeah! (baby, baby, baby, baby)
Bbsus2 Bb7sus2 Bbsus2 Bb7sus2 Bbsus2 Bb7sus2 Bbsus2
I tried to sing along. But, damn that radio song.
Bb7sus2 Bbsus2 F7 F7
Hey, hey, hey, hey, hey, hey.

{play intro riff}
I've everything to show
I've everything to hide
Look into my eyes listen to the radio
I turned up the radio
But I can't hear it
No, I can't hear it

| Bb5 | Eb5 |

F7
Hey, hey, hey (say what)
Hey, hey, hey (let me do that with you)
Hey, hey, hey, hey ,hey, hey, hey, hey
Hey, hey, hey, hey, hey, (say what, say what, say what)
Hey, hey, hey

F7
Check it out
What are you saying
What are you playing
Who are you obeying
day out day in?
Baby baby baby
That stuff is driving me crazy
DJs communicate to the masses
Sex and violent classes
Now our children grow up prisoners
All their lives radio listeners

 

LOSING MY RELIGION

F xx3211 Em 022000
Fsus2 xx3011 Em(II) x79987
G 320033 Ebm x68876
Am x02210 C x32010
Am(II) xxx210 Dm xx0231


-10-12-10----
----------10-
-------------
-------------
-------------
-------------

F / F F Fsus2 / F / F / F G G G
|-1-----------1---1---1-------1-|-----1-------1---3-------3---3-|
|-1-----------1---1---1-------1-|-----1-------1---3-------3---3-|
|-2-----------2---2---0-------2-|-----2-------2---0-------0---0-|
|-3-----------3---3---3-------3-|-----3-------3---0-------0---0-|
|-------------------------------|-----------------2-------2---2-|
|-------------------------------|-----------------3-------3---3-|

Am AmII AmII AmII AmII AmII
|-0-----------0---------------0-|-------------0-------0---0-----|
|-1-----------1---------------1-|-------------1-------1---1-----|
|-2-----------2---------------2-|-------------2-------2---2-----|
|-2-----------------------------|-------------------------------|
|-0-----------------------------|-------------------------------|
|-------------------------------|-------------------------------|

F / F F Fsus2 F / F F G G Am
|-1-----------1---1---1-------1-|-----1-------1---3-------3---0-|
|-1-----------1---1---1-------1-|-----1-------1---3-------3---1-|
|-2-----------2---2---0-------2-|-----2-------2---0-------0---2-|
|-3-----------3---3---3-------3-|-----3-------3---0-------0---2-|
|-------------------------------|-----------------2-------2---0-|
|-------------------------------|-----------------3-------3-----|

Am Am Am Am G
|-0-------0-------0---0-------3-|
|-2-------2-------2---2-------3-|
|-2-------2-------2---2-------0-|
|-1-------1-------1---1-------0-|
|-0-------0-------0---0-------2-|
|-----------------------------3-|

Am Em
Oh life is bigger, it's bigger than you.
Am Em
And you are not me, the lengths that I will go to.
Am
The distance in your eyes.
Em Em(II) Ebm Dm G
Oh no, I've said too much, I've said enough.
Am Em
That's me in the corner, That's me in the spot light,
Am Em
Losing my religion. Trying to keep up with you.
Am
And I don't know if I can do it.
Em Em(II) Ebm Dm G
Oh no, I've said too much, I haven't said enough.
F Fsus2
I thought that I heard you laughing.
F G Am Am(II)
I thought that I heard you sing.
F Fsus2 F G Am
I think I thought I saw you try.
G Am
Every whisper,
Em Am
Every waking hour, I'm choosing my confessions.
Em
Trying to keep eye on you.
Am
Like a hurt lost and blinded fool, fool.
Em Dm G
Oh no, I've said too much. I said enough.
Am Em
Consider this, consider this hint of the century.
Am Em
Consider this, the slip, that brought me to my knees pale.
Am Em
What if all these fantasies come flailing around
Em(II) Dm G
Now I've said too much.
F Fsus2
I thought that I heard you laughing.
F G Am Am(II)
I thought that I heard you sing.
F Fsus2 F G Am G
I think I thought I saw you try.


{Interlude:}

-----12--12--12--10--10--10--10--10--8--8--8--5--5--5--5--5------
--------------------------------------------------------------------
--------------------------------------------------------------------
--------------------------------------------------------------------
--------------------------------------------------------------------
--------------------------------------------------------------------

C Am
That was just a dream.
C / C Am
That was just a dream. That's me in the corner.
Em Am
That's me in the spot light, losing my religion.
Em Am
Trying to keep up with you. And I don't know if I can do it.
Em Em(II) Ebm Dm
Oh no, I've said too much.
G
I haven't said enough.
F Fsus2
I thought that I heard you laughing.
F G Am Am(II)
I thought that I heard you sing.
F Fsus2 F G Am(II)
I think I thought I saw you try.
F Fsus2 F G Am Am(II)
But that was just a dream, try, cry, why try.
F Fsus2 F G Am G /
That was just a dream, just a dream, just a dream, dream.


{Outro:}

Am
v v
|-12-12-12-12-12-12-12-12-|-12-10-------10-------------|
|-------------------------|-------13-10----13-10-13-10-|
|-------------------------|----------------------------|
|-------------------------|----------------------------|
|-------------------------|----------------------------|
|-------------------------|----------------------------|
(Play the first measure 7 times)

 

LOW

| A5 G5 | B5 | A5 G5 | B5 | A5 G5 | B5 |

A5 G5 B5 A5 G5 B5
Dusk is dawn is day, where did it go?
A5 G5 B5 A5 G5 B5
I've been laughing fast and slow.
A5 G5 B5 A5 G5 B5
Moving in a still frame, howling at the moon.
A5 G5 B5 A5 G5 B5
Morning found me laughing up and down, down.

A5 G5 B5
Low, low, low.
A5 G5 B5 A5 G5 B5
Night suits me fine, and morning suits me fine.
A5 G5 B5 A5 G5 B5 A5 G5 B5 A5
I've been so happy, happy, way up high, high, in between,
G5 B5 A5 G5 B5
down below. Low, low, low.


Cmaj7 G E5
I skipped the part about love.
Cmaj7 G E5
It seemed so silly and low.

A5 G5 B5
Low, low, low.
A5 G5 B5
Low, low, low.

A5 G5 B5 A5 G5 B5
I said the morning, it isn't your time.
A5 G5 B5 A5 G5 B5
Barefoot naked, I can see your lines.
A5 G5 B5 A5 G5 B5
It doesn't bother me, if you are right.
A5 G5 A5 G5 B
Your grass is grassy wet. Your light white is bright light white. Light.

Cmaj7 G E5
I skipped the part about love.
Cmaj7 G E5
It seemed so shallow and low.

A5 G5 B5
Low, low, low
A5 G5 B5
Low, low, low


A G B A G B
You and me, we know about time.
A G B A G B
We know how things go. They come and go; they live and grow;
A G B
They pass and go, and glow and glow.
A G B
Up and down, high and low.

A G B
Low, low, low.
A G B
Low, low, low.

Cmaj7 G E5
I skipped the part about love.
Cmaj7 G E5
It seemed so silly and low.
Cmaj7 G E5
I skipped the part about love.
Cmaj7 G E5
It seemed so shallow and low.

A5 G5 B5
Low, low, low.
A5 G5 B5
Low, low, low.

A5 G5 B5 A5 G5 B5 A5 G5 B5
I like your hands all full of glory, all full of glory.


| A5 G5 | B (pick through the B chord)

 

NEAR WILD HEAVEN

{intro:}

Dadd9 A
E-|------------0-----------0--|--------------0---------------0------|
B-|-----7----------7-----------|-------5------------5---------------|
G-|---------7-----------7-------|----------6-----------6-----------|
D-|-0-------------------------|--7----------------------------------|
A-|-------------------------------|---------------------------------|
E-|-------------------------------|---------------------------------|

G6
E-|-------------0-------------0--|-------------0-------------0--|
B-|-----8------------8-----------|-----8------------8-----------|
G-|---------7-------------7------|---------7-------------7------|
D-|-5----------------------------|-5----------------------------|
A-|------------------------------|------------------------------|
E-|------------------------------|------------------------------|

Dadd9 A
E-|--------------0-------------0--|------0-------------------|
B-|-----7-------------7-----------|--5-----------8---7----0--|
G-|---------7-------------7-------|--6-----------------------|
D-|-0-----------------------------|--7--------7--------------|
A-|-------------------------------|--------------------------|
E-|-------------------------------|--------------------------|

G6
E-|-------------0--------------0--|-------------0--------------0--|
B-|-----8--------------8----------|-----8--------------8----------|
G-|---------7--------------7------|---------7--------------7------|
D-|-5-----------------------------|-5-----------------------------|
A-|-------------------------------|-------------------------------|
E-|-------------------------------|-------------------------------|


A G E A G
Whenever we hold each other, we hold each other,
Asus2 G6 Asus2 G6
there's a feeling that's gone. Something has gone wrong.
Asus2 G6 Asus2
And I don't know how much longer I can take it.
G6 Asus2
House made of heart, break it.
G6 Asus2 G6
Take my head in your hands and shake it in this near wild heaven
Dadd9 A G6
not near enough (inside, living inside, living inside)
G6 Dadd9 A G6
Near wild heaven (living inside, living inside, living inside)
G6
Near wild heaven.

A G E A G
Whatever it takes, I'm giving. It's just a gift I'm given.
Asus2 G6 Asus2 G6
Try to live inside. Trying to move inside.
Asus2 G6 Asus2
And I always thought that it would make me smarter,
G6 Asus2
but it's only made me harder.
G6 Asus2 G6
My heart thrown open wide in this near wild heaven
Dadd9 A G6
not near enough (inside, living inside, living inside)
Dadd9 A G6
Near wild heaven (living inside, living inside, living inside)
Dadd9 A G6
Near wild heaven (living inside, living inside, living inside)
Dadd9 A G6
Near wild heaven (living inside, living inside, living inside)
Dadd9 A G6
Near wild heaven (living inside, living inside, living inside)
G6
Near wild heaven

A5 G5 A5 G5
I'm holding my hands together. I'm holding my feet together.
A5 G5 A5 G5 G6
I'm holding myself together in this near wild heaven.
Dadd9 A G6
not near enough (living inside, living inside)
Dadd9 A G6
Not near enough (living inside, living inside)
G6
Near wild heaven
Dadd9 A G6
Near wild heaven (living inside, living inside, living inside)
Dadd9 A G6
Near wild heaven (living inside, living inside, living inside)
Dadd9 A G6
Near wild heaven (living inside, living inside, living inside)
Dadd9 A G6
Near wild heaven (living inside, living inside, living inside)

 

ENDGAME

Riff: (Measures 1, 2, and 3)

C Dadd4 E7 A
E-|----|---------------------------------------|-----------------------|------|
B-|----|---------------------------------------|-----------------------|------|
G-|----|o------0-----------------0-------------|-7------7--6-----------|------|
D-|----|o---------2-----------------4----------|---6----------7--------|------|
A-|-2--|----3---------3--(3)/5----------(5)/7--|-----7-----------0--2--|------|
E-|----|---------------------------------------|-----------------------|------|

C Dadd4 E7 A
E-|------------------------------------|------------------------------|-------|
B-|------------------------------------|------------------------------|-------|
G-|----0-----------------0-------------|-7------7--6h7p6-------------o|-------|
D-|-------2-----------------4----------|---6--------------7----------o|-------|
A-|-3---------3--(3)/5----------(5)/7--|-----7----------------0--2----|-------|
E-|------------------------------------|------------------------------|-------|

sometimes measure 4 ends like this....

(G)-6h7p6------6---
(D) -------7-----7-
(A) ---------------

{"Chorus":}

D Bm A
E ---------5-3-2--|-2--2--0----------0------|
B ---3-3-3-3-3-3--|-3--3--0---2---3-----0---|
G ---2-2-2-2-2-2--|-4--4------2-------------| Repeat
D -0-0-0-0-0-0-0--|-4--4------2-------------|
A ----------------|-2---------0-------------|
E ----------------|-------------------------|

{coming out of the chorus after the D riff play:}

E E7
E-|-0-------0--------------|--------------0-----------|
B-|-0-------------0--------|-----------0-----0--------|
G-|-1-----------------1----|--------1-----------1-----|
D-|-2---2------------------|--0--0--------------------|
A-|-2----------------------|-----------------------2--|
E-|-0----------------------|--------------------------|


{Play intro riff again, follow with the "chorus" riff, and instead of the E/E7
part, play the following:}

F#7 G5
E-|-----------0----------0-|-----------3--------------|
B-|-----2---------2--------|-----3----------3---------|
G-|--------3----------3----|--0-----0-----------0-----|
D-|--4---------------------|--------------------------|
A-|------------------------|--------------------------|
E-|------------------------|--------------------------|

E D
E-|-----------0----------0-|-----------2--------------|
B-|-----0----------0-------|-----3----------3---------|
G-|------------------------|--------2-----------2-----|
D-|--2-----2----------2----|--0-----------------------|
A-|------------------------|--------------------------|
E-|------------------------|--------------------------|


F#7 G5
E-|-----------0----------0-|-----------3--------------|
B-|-----2---------2--------|-----3----------3---------|
G-|--------3----------3----|--0-----0-----------0-----|
D-|--4---------------------|--------------------------|
A-|------------------------|--------------------------|
E-|------------------------|--------------------------|


E E7
E-|--------------0-------0-|--0-----------------------|
B-|-----0-----------0------|--0-----------------------|
G-|--------1---------------|--1-----------------------|
D-|--2--------2--------2---|--0-----------------------|
A-|------------------------|--------------------------|
E-|------------------------|--------------------------|

Then back to intro riff, "chorus" riff, E/E7 riff, end on D5.

Ending:

-0----0--------|---------0-----|----------0------0-----|
-0--------0----|-----0-----0---|----0-------0-------3--|
-1-----------1-|--1----1-----1-|------1-------------2--|
-2--2----------|--2------------|--2-----2------2----0--|
-2-------------|---------------|-----------------------|
-0-------------|---------------|-----------------------|

 

SHINY HAPPY PEOPLE

{Intro:} | G | Em | Bm | C | G | Em | Bm | C |

{Riff:}

E-|----2p0-2-0----------|----0--------2--0----|----2p0--2--0----------|-----0-|
B-|-------------0--0--0-|-2-------0-----------|---------------0--0--0-|-2-----|
G-|---------------------|---------------------|-----------------------|-------|
D-|---------------------|---------------------|-----------------------|-------|
A-|-2-------------------|-------------------0-|-2---------------------|-------|
E-|---------------------|---------------------|-----------------------|-------|

{riff}
Shiny happy people laughing.
F#m E F#m E Asus2 E
Meet me in the crowd. People, people.
F#m E F#m E Asus2 E
Throw your love around. Love me, love me.
F#m E F#m E Asus2 E
Take it into town. Happy, happy.
F#m E F#m E Asus2 E
Put it in the ground where the flowers grow.
G E E7
Gold and silver shine.

{riff}
Shiny happy people holding hands.
Shiny happy people holding hands.
Shiny happy people laughing.


F#m E F#m E Asus2 E
Everyone around. Love them, love them.
F#m E F#m E Asus2 E
Put it in your hands. Take it, take it.
F#m E F#m E Asus2 E
There's no time to cry. Happy, happy.
F#m E F#m E Asus2 E
Put it in your heart where tomorrow shines.
G E E7
Gold and silver shine.

{riff:}
Shiny happy people holding hands.
Shiny happy people holding hands.
Shiny happy people laughing.

| G | Em | Bm | C | G | Em | Bm | C |

{riff to end}
(Here we go)
Shiny happy people holding hands
Shiny happy people holding hands
Shiny happy people laughing
Shiny happy people holding hands
Shiny happy people holding hands
Shiny happy people laughing
People, happy people
People, happy people

 

BELONG

G: 3x000x Gsus4: 3x001x G5: 3x0033


Intro riff:

E-|--------------------------------------------------|
B-|--------------------------------------------------|
G-|------------0--------------0--------------0-------| x 4
D-|----0-h-4----------0-h-4--------0-h-4----------4--|
A-|-5------------------------------------------------|
E-|--------------------------------------------------|


{The following chords are only strummed once, unless otherwise noted.}

G Gsus4
Her world collapsed early Sunday morning.
G5
She got up from the kitchen table,
G
folded the newspaper and silenced the radio.
G Gsus4 G5 G
Those creatures jumped the barricades and have headed for the sea, sea.


{Then strum G5 6 times}

{Chorus:}
G5 {strum repeatedly for 4 bars}
Oh............


G Gsus4
Those creatures jumped the barricades and have headed for the sea.
G5 G
She began to breathe, to breathe at the thought of such freedom,

stood and whispered to her child, belong.
Gsus4 G5 G
She held the child and whispered with calm, calm; belong.


{Then strum G5 6 times}

{Chorus:}
G5 {strum repeatedly for 4 bars}
Oh............


G Gsus4 G5 G
She stood and whispered to her child, belong.
G Gsus4 G5
She held the child and whispered with calm, calm; belong.


{Then strum G5 6 times}

{Chorus:}
G5 {strum repeatedly for 4 bars}
Oh............

G Gsus4
These barricades can only hold for so long.
G5
Her world collapsed early Sunday morning.
G
She took the child held tight, opened the window;
G Gsus4 G5 G
a breath, this song, how long, and knew, knew; we belong.

{Then strum G5 6 times}

{Chorus:}
G5 {strum repeatedly for 4 bars}
Oh............

{Chorus:}
G5 {strum repeatedly for 4 bars}
Oh............

{Chorus:}
G5 {strum repeatedly for 4 bars}
Oh............

{Chorus:}
G5 {strum repeatedly for 4 bars}
Oh............


| G | Gsus4 | G5 | G | G | Gsus4 | G5 | G |

 

HALF A WORLD AWAY

Intro: | Am | G | D Dsus4 D Dsus2 | Em |

Am G D Dsus4 D Dsus2 Em
This could be the saddest dusk I've ever seen
Am G D Dsus4 D Dsus2
turn to a miracle, high alive.
Em Am G D Dsus4 D Dsus2
My mind is racing, as it always will.
Em Am
My hands tired, my heart aches.
G D Dsus4 D Dsus2 Em F
I'm half a world away here, my head sworn to go it alone,
F D Dsus4 D Dsus4 D Dsus2
and hold it along, haul it along and hold it.
F D Dsus4 D
Go it alone, and hold it along. Oh................


Dsus4 D Dsus2 G D Dsus4 D Dsus2
Oh lonely deep sit hollow.
Em Am G
Half a world, half a world away.
D Dsus4 D Dsus2 Em Am
My shoes are gone, my life spent.
G D Dsus4 D Dsus2
I've had too much to drink.
Em Am G
I didn't think, I didn't think of you.
D Dsus4 D Dsus2 Em
I guess that's all I need-ed.
F D Dsus4 D Dsus4 D Dsus2
To go it alone, and hold it along, haul it along, and hold it.
F
Backwards, blackbirds, forwards and fall.

Dsus4 D Dsus2 G D Dsus4 D Dsus2
Oh lonely world is wasted.
Em Am G
Pathetic eyes, high alive.
D Dsus4 D Dsus2 Em Am
Blind to the tide that turns the sea.
G D Dsus4 D Dsus2
This storm it came up strong.
Em Am G
It shook the trees and blew away our fear.
D Dsus4 D Dsus2 Em
I couldn't even hear.

F D Dsus4 D Dsus4 D Dsus2
To go it alone, and hold it along, haul it along, and hold it.
F D Dsus4 D
Go it alone, and hold it along. Oh................
F D Dsus4 D Dsus4 D Dsus2
Go it alone, and hold it along, haul it along, and hold it.
F
Blackbirds, backwards, forwards and fall.

D Dsus4 D Dsus4 D Dsus2
Oh.............. Oh,
G D Dsus4 D Dsus2
this could be the saddest dusk
Em Am G D Dsus4 D Dsus2 Em
I ever seen turn to a miracle, high alive.
Am G D Dsus4 D Dsus2 Em
My mind is racing, as it al--ways will.
Am G
My hands tired, my heart aches.
D Dsus4 D Dsus2 Em
I'm half a world a - way.


Am D G

 

TEXARKANA

| Em | G | Bm | Bm | Em | A | G | G |


Em G Bm
20,000 miles to an oasis.
Em A G
20,000 years will I burn.
Em G Bm Em A G
20,000 chances I wasted waiting for the moment to turn.
Cadd9 D Bm
I would give my life to find it, I would give it all.
Cadd9 | Am | Em | D Dsus2 | Em | D Dsus2 |
Catch me if I fall.

Em G Bm
Walking through the woods, I have faced it.
Em A G
Looking for something to learn.
Em G Bm Em A G
30,000 thoughts have replaced it, never in my time to return.
Cadd9 D Bm
I would give my life to find it, I would give it all.
Cadd9 | Am | Em | D Dsus2 | Em | D Dsus2 |
Catch me if I fall.

{Bridge:} | Asus2 | Asus2 | G5 | G5 | Asus2 | Asus2 | G5 | {pick through}

| D | D | G | G | D | D | E | E |
All alone, waiting to fall.

Em G Bm
40,000 stars in the evening.
Em A G
Look at them fall from the sky.
Em G Bm
40,000 reasons for living.
Em A G
40,000 tears in your eye.
Cadd9 D Bm
I would give my life to find it, I would give it all.
Cadd9 | Am | Em | D Dsus2 | Em | D Dsus2 |
Catch me if I fall.
Cadd9 | Am | Em | D Dsus2 | Em | D Dsus2 |
Catch me if I fall.
Cadd9 | Am | Em | D Dsus2 | Em | D Dsus2 |
Catch me if I fall.
Em D
Catch me if I fall.

 

COUNTRY FEEDBACK

Intro: | Em G | D C | G D | Cmaj7 | Em G | D C | G D | Em |

Em G D C G
This flower is scorched. This film is on, on a maddening loop.
D Cmaj7 Em G
These clothes, these clothes don't fit us right,
D C G D Cmaj7
and I'm to blame. It's all the same. It's all the same.

Em G
You come to me with a bone in your hand.
D C
You come to me with your hair curled tight.
G D Cmaj7 Em G
You come to me with positions. You come to me with excuses,
D C G D Cmaj7
ducked out in a row. You wear me out. You wear me out.

Em G D C
We've been through fake-a-breakdown, self hurt, plastics, collections,
G D Cmaj7
self help, self pain, EST, psychics, fuck all.
Em G D C G D Cmaj7
I was central. I had control. I lost my head. I need this. I need this.
Em G D C
A paper weight, a junk garage, winter rain, a honey pot.
G D Cmaj7 Em G
Crazy, all the lovers have been tagged. Hotline, wanted ad.
D C G D Cmaj7
It's crazy what you could have had.
Em G
It's crazy what you could have had.
D C
It's crazy what you could have had.
G D Cmaj7
I need this. I need this.

Em G
It's crazy what you could have had.
D C
It's crazy what you could have had.
G D Cmaj7
I need this. I need this.

Em G
It's crazy what you could have had.
D C
It's crazy what you could have had.
G D Cmaj7 Em G
I need this. I, I need this.

D C
It's crazy what you could have had.
G D Cmaj7
I need this. I need this.

Em G
It's crazy what you could have had.
D C
Crazy what you could have had.
G D Cmaj7 | Em G | D C | G D | Cmaj7 |
I need this. I need this.

Em G | D C | G D | Cmaj7 |
Crazy what you could have had.
Em G | D C | G D | Cmaj7 |
Crazy what you could have had.

 

ME IN HONEY

{Db5 riff} {Ab5 riff}
E-|------------------ E-|------------------
B-|------------------ B-|------------------
G-|-6---6-6----6-6-6- (repeat) G-|------------------ (repeat)
D-|-4h6-6-6----4-4-4- D-|-6---6-6----6-6-6-
A-|-4---4-4----4-4-4- A-|-4h6-6-6----4-4-4-
E-|------------------ E-|-4---4-4----4-4-4-


{Db5 riff}
I sat there looking ugly, looking ugly and mean.
Knew what you were saying you were saying to me.
Baby's got some new rules, baby said she's had it with me.
It seems a shame you waste your time on me.
Seems a lie to waste your time for me.

{Ab5 riff} {Db5 riff}
Left me to love, What it's doing to me.

{Db5 riff}
There's a lot of honey in this world, baby this honey's from me.
Got to do what you do, do it with me.
It seems a shame you waste your time for me.

{Ab5 riff} {Db5 riff}
Left me to love, What it's doing to me.

{Db5 riff}
Knocked silly, knocked flat, sideways down.
These things they pick you up, turn you around.
Say your piece, say you're sweet for me.
It's all the same to share the pain with me.
It's all the same. Save the shame for me.

{Ab5 riff} {Db5 riff}
Left me to love, What it's doing to me.

{Db5 riff}
Baby's got some new rules, baby says she's had it with me.
There's a fly in the honey and baby's got a baby with me.
That's a part, that's a part of me.

{Ab5 riff} {Db5 riff}
Left me to love, What it's doing to me.
{Ab5 riff} {Db5 riff}
Left me to love, What it's doing to me.

{Db5 riff} {Db5 riff}
What about me? What about me?


E-|-----
B-|-----
{End on:} G-|-6---
D-|-4h6-
A-|-4---
E-|-----

 

DOWNLOAD TYZDNA


R.E.M. - IHT_U_EDIYTW [dubmix]
DOWNLOAD


FLASH PLAYER

flash music player

ANKETA

Vas favorit spomedzi doposial zverejnenych skladieb?

Oh My Heart
Mine Smell Like Honey
Discoverer
Uberlin
It Happend Today

Predbezne vysledky


MAILINGLIST

Chcete byť vždy v čas informovaný o novinkách a aktualitách okolo R.E.M.?
Zaregistrujťe sa!




VÝROKY



FOTO 1/2-MESIACA



CHAT


WEB NEWS


26.01. 2011 - Nova anketa


PARTNERI


Nočná Hudba

Codegravity

Radiohead.sk

Hudba



ICQ


Up 132-246-975
Majk 94-967-086


INFO

Nastaviť ako homepage
Zaradiť medzi obľúbené
Zobrazení za dnes
98
Aktuálna návšteva
2 ludia

Copyright © 2001-2004, R.E.M. fans Czechoslovakia. Design by Up