TABULATURY | Lifes Rich Pageant
FALL ON ME

Intro:

e|----------------------------------------------|
B|-------8------10-8--------8------10-8---------|
G|---------0---------0--------0---------0-------|
D|--9h10-----10--------9h10-----10--------9h10--|
A|----------------------------------------------|
E|----------------------------------------------|

Dm Am
There's a problem, feathers iron
Dm Am
Bargain buildings, weights and pullies
Dm Am Dm Am
Feathers hit the ground before the weight can leave the air
Dm G C Dm/F Dm C G7
Buy the sky and sell the sky and tell the sky and tell the sky


{walk} C Dm F G
Don't fall on me (What is it up in the air for) (It's gonna fall)
Fall on me (If it's there for long) (It's gonna fall)
F G F Fmaj7
Fall on me (It's over it's over me) (It's gonna fall)


Dm Am
There's the progress we have found (when the rain)
Dm Am
A way to talk around the problem (when the children reign)
Dm Am
Building towered foresight (keep your conscience in the dark)
Dm Am
isn't anything at all (melt the statues in the park)
Dm G C Dm/F Dm C G7
Buy the sky and sell the sky and bleed the sky and tell the sky

{walk} C Dm F G
Don't fall on me (What is it up in the air for) (It's gonna fall)
Fall on me (If it's there for long) (It's gonna fall)
F G F Fmaj7
Fall on me (It's over it's over me) (It's gonna fall)

Am F Am
Well I could keep it above
G Am
But then it wouldn't be sky anymore
F Dm G
So if I send it to you you've got to promise to keep it whole

Dm G C Dm/F Dm G C Dm/F
Buy the sky and sell the sky and lift your arms up to the sky
Dm C G
And ask the sky and ask the sky

{walk} C Dm F G
Don't fall on me (What is it up in the air for) (It's gonna fall)
Fall on me (If it's there for long) (It's gonna fall)
F G F Fmaj7
Fall on me (It's over it's over me) (It's gonna fall)

{walk} C Dm F G
Don't fall on me (What is it up in the air for) (It's gonna fall)
Fall on me (If it's there for long) (It's gonna fall)
F G F Fmaj7
Fall on me (It's over it's over me) (It's gonna fall)

{walk} C Dm F G
Don't fall on me (What is it up in the air for) (It's gonna fall)
Fall on me (If it's there for long) (It's gonna fall)
F G F Fmaj7
Fall on me (It's over it's over me) (It's gonna fall)...

 

I BELIEVE

Intro:
e-----------------------------------------------------
B-------0-0-0-0-0-0------0-0-0-0-0-0------------------
G--0-2-4-4-4-4-2-0---2->4-4-4-4-2-0---0----0-0-0------
D-------------------slide------------2->5-5-5-5--etc--
A-----------------------------------------------------
E-----------------------------------------------------


F
When I was young and full of grace
F
and spirited--a rattlesnake.
F
When I was young and fever fell
F
My spirit, I will not tell
Bb Gm
You're on your honor not to tell


F
I believe in coyotes and time as an abstract
F Bb
Explain the change, the difference between
Gm C
What you want and what you need, there's the key,
Am
Your adventure for today, what do you do
Bb C
Between the horns of the day?

F Fsus4 F C F Fsus4 F C F Fsus4 C Gm
I --- I -------- I ---- believe my shirt is wearing thin
Bb
And change is what I believe in

{same as before}
When I was young and give and take
And foolish said my fool awake
When I was young and fever fell
My spirit, I will not tell
You're on your honor, on your honor

When I was young and give and take
And foolish said my fool awake
When I was young and fever fell
My spirit I will not tell
You're on your honor on your honor

Trust in your calling, make sure your calling's true
Think of others, the others think of you
Silly rule golden words make, practice practice makes perfect,
Perfect is a fault, and fault lines change

I believe my humor's wearing thin
And change is what I believe in

{break: Dm Bb Dm Bb D Bb C}

I believe my shirt is wearing thin
And change is what I believe in

When I was young and full of grace
As spirited a rattlesnake
When I was young and fever fell
My spirit, I will not tell
You're on your honor, on your honor
C
I believe in example
Am
I believe my throat hurts
Bb C
Example is the checker to the key

I believe my humor's wearing thin
And I believe the poles are shifting

I believe my shirt is wearing thin
And change is what I believe in

End on Dm.

 

CUYAHOGA

G(3) --2------2----|
D(4) 0-----0-----0-|
A(5) |--5-----5-5-----|--2-------2-----|--5-5---5-5-----|
E(6) |3-----3-----3---|0-----0-------0-|3-----3-----3---|

D G Em G (repeat throughout verse)
Let's put our heads together and start a new country up
Our father's father's father tried, erased the parts he didn't like
Let's try to fill it in, bank the quarry river, swim
We knee-skinned it you and me, we knee-skinned that river red

Em Bm Em F#m
This is where we walked, this is where we swam
Em Bm Em D
Take a picture here, take a souvenir

D G Em G (repeat throughout verse)
This land is the land of ours, this river runs red over it
We knee-skinned it you and me, we knee-skinned that river red
And we gathered up our friends, bank the quarry river, swim
We knee-skinned it you and me, underneath the river bed

(see below...)
This is where we walked, this is where we swam
Take a picture here, take a souvenir

Cuyahoga D - Em -/G - Bm -/D D D D/ Asus4 A A2 A
Cuyahoga, gone D - Em -/G - Bm -/D - Em -/G - - -

D G Em G (repeat throughout verse)
Let's put our heads together, start a new country up,
Underneath the river bed we burned the river down.
This is where they walked, swam, hunted, danced and sang,
Take a picture here, take a souvenir
Cuyahoga
Cuyahoga, gone

Bm F#m G
Rewrite the book and rule the pages, saving face, secured in faith
Bm F#m G
Bury, burn the waste behind you

(intro riff)

D G Em G (repeat throughout verse)
This land is the land of ours, this river runs red over it
We are not your allies, we can not defend
This is where they walked, this is where they swam
Take a picture here, take a souvenir

Cuyahoga D - Em -/G - Bm -/D D D D/ Asus4 A A2 A
Cuyahoga, gone D - Em -/G - Bm -/D - Em -/G - - -
Cuyahoga D - Em -/G - Bm -/D D D D/ Asus4 A A2 A
Cuyahoga, gone D - Em -/G - Bm -/D - Em -/G - - -


This is what to do for the "this is where we walked..." part:

Em Bm Em F#m
e(1) --just--jam-----|2-----2------|--Em-again...---|2-----2--------|
B(2) ------on--------|-----------3-----|------------|---------2-----|
G(3) --------Em------|-------------4---|------------|----------2---|

 

CUYAHOGA (Version 2)

DROP D (DADGBe)
/=slide

Intro:
D G Em G
e --------------------------------
B --------------------------------
G --------------------------------
D --------------------------------
A -0=-0=---5=-55---2=--2=--55-55--
D 0--0--0=5--5--5s2--2=--25--5--5-
1-2-3-4-1-2-3-4-1-2-3-4-1-2-3-4-
/ /

Verse lick:
(damp 4th string runs with heel of picking hand)
D G Em G
e 2222=---3-----3---------------3-
B 3333=---3---3---------------3---
G 4442=---0------------2-0--------
D 0000=4200-------2224=-4---------
A 0000----x-------222-------------
D 0000----3-------222-----3-------
1-2-3-4-1-2-3-4-1-2-3-4-1-2-3-4-
/
Let's put our . . .
Let's try to . . .

Chorus Part A:
Em Bm Em F#m Em Bm Em D (BIG!)
e -------2----2-0--------2----2----------2----2-0--------2--------
B -------3---------------2------2--------3---------------3--------
G -------4---------------2---------------4---------------2--------
D -------4---------------2---------------4---------------0--------
A 02=02002--------02=02004--------02=02002--------02=02000--------
D 02=0200x--------02=02004--------02=02002--------02=02000--------
1-2-3-4-1-2-3-4-1-2-3-4-1-2-3-4-1-2-3-4-1-2-3-4-1-2-3-4-1-2-3-4-
This is where...

Verse = This land . . .
Verse = We gathered up . . .
Chorus Part A = This is where . . .

Chorus Part B: Aadd9
D Em G Bm D A |A D Em G Bm D Em G (hold it)
e 22--00--33--22--22-2-2-22-0000--22--00--33--22--22--00--33-------
B 33--00--33--33--33-3-3-33-2202--33--00--33--33--33--00--33-------
G 22--00--00--44--22-2-2-22-2222--22--00--00--44--22--00--00-------
D 00--22--00--44--00-0-0-00-2222--00--22--00--44--00--22--00-------
A 00--22--55--22------------0000--00--22--xx--22--00--22--55-------
D 00--22--55--xx------------------00--22--55--xx--00--22--55-------
-1-2-3-4-1-2-3-4-1-2-3-4-1-2-3-4-1-2-3-4-1-2-3-4-1-2-3-4-1-2-3-4-
Cuyahoga . . .

Verse = Let's put . . .
Chorus A = This is where . . .
Chorus B = Cuyahoga . . .

Bridge: (remember G is 550033 low to high)
Bm / A / G / G / Bm / A / G / G
Rewrite . . . Bury . . .

Intro
Verse = This land is . . .
Chorus A = This is where . . .
Chorus B = Cuyahoga . . .

Last time through hold G an extra bar and finish with D

 

DOWNLOAD TYZDNA


R.E.M. - IHT_U_EDIYTW [dubmix]
DOWNLOAD


FLASH PLAYER

flash music player

ANKETA

Vas favorit spomedzi doposial zverejnenych skladieb?

Oh My Heart
Mine Smell Like Honey
Discoverer
Uberlin
It Happend Today

Predbezne vysledky


MAILINGLIST

Chcete byť vždy v čas informovaný o novinkách a aktualitách okolo R.E.M.?
Zaregistrujťe sa!




VÝROKY



FOTO 1/2-MESIACA



CHAT


WEB NEWS


26.01. 2011 - Nova anketa


PARTNERI


Nočná Hudba

Codegravity

Radiohead.sk

Hudba



ICQ


Up 132-246-975
Majk 94-967-086


INFO

Nastaviť ako homepage
Zaradiť medzi obľúbené
Zobrazení za dnes
102
Aktuálna návšteva
2 ludia

Copyright © 2001-2004, R.E.M. fans Czechoslovakia. Design by Up