TABULATURY | Document
FINEST WORKSONG

Intro riff:

E-|-----------------------------|-------0---------0-0-x-0-0----|
B-|----0-0-0-0-0---0-0-0-0-0-0--|-0-0-0-0-0-----0-0-0-x-0-0----|
G-|-o--4-4-4-4-4---4-4-4-4-4-4--|-4-4-4-4-4-----4-4-0-x-0-0--o-|
D-|-o---------------------------|----------------------------o-|
A-|-----------------------------|------------------------------|
E-|-----------------------------|------------------------------|


Verse:

Badd4
E-|--0-0-0-0-0------0-0-0-0-0-0-0--|------------|
B-|--0-0-0-0-0------0-0-0-0-0-0-0--|------------|
G-|--4-4-4-4-4------4-4-4-4-4-4-4--|------%-----|
D-|--4-4-4-4-4------4-4-4-4-4-4-4--|------------|
A-|--2-2-2-2-2------2-2-2-2-2-2-2--|------------|
E-|--------------------------------|------------|


{Use verse riff}
The time to rise has been engaged
You're better best to rearrange
I'm talking here to me alone
I listen to the finest worksong


E F#
Your finest hour
E F#
Your finest hour


{Intro riff}


{Use verse riff}
Another chance has been engaged
To throw Thoreau and rearrange
You are following this time
I beg you not beg to rhyme


E F#
(blow your horn) Your finest hour
E F#
(blow your horn) Your finest hour


{Intro riff}


{Use verse riff}
Take your instinct by the reins
Your better best to rearrange
What we want and what we need
Has been confused been confused


E F#
(blow your song) Your finest hour
E F#
(blow your song) Your finest hour


{Break: A single notes: A G F# G A}


{Use verse riff}
Take your instinct by the reins
Your better best to rearrange
What we want and what we need
Has been confused been confused


E F#
(blow your song) Your finest hour
E F#
(blow your song) Your finest hour
E F#
(blow your song) Your finest hour


{end with Em and various harmonics}

 

DISTURBANCE AT THE HERON HOUSE

{Intro riff:}

B--------------------------
G---2--0-4-2-2h4p2-(0)--0-| x 4
D-0-------------------2---|


Dsus2 {Peter is just picking through
"They're going wild," the call came in a Dsus2 chord during the
At early morning pre-dawn, then verses}
"The followers of chaos out of control
They're numbering the monkeys
The monkeys and the monkeys,"
The followers of chaos out of control


G A
The call came in to Party Central
G A G A
"Meeting of the green and simple,"
G A
Try to tell us something we don't know


{Intro riff x 2}


Dsus2
"They're meeting at the monument,"
The call came in the monument
To liberty and honor under the honor roll
"They've gathered up the cages the cages and courageous,"
The followers of chaos out of control


G A
The call came in to Party Central
G A G A
"Meeting of the green and simple,"
G A
Try to tell us something we don't know


{Solo:}

E--3--3-3--5b6r5-3--|--3--3-3-5b6r5-3---|--3-3-3--5b6r5-3---|
B-------------------|----------------3-3|-------------------|

E--3-3-3-5b6r5-3----|--3-3-3--5b6r5-3---|--/10-10-8-7-------|
B----------------3-3|-------------------|-------------------|


{Intro riff x 4}


Dsus2
"Disturbance at the Heron House"
A stampede at the monument
To liberty and honor under the honor roll
The gathering of grunts and greens
Cogs and grunts and hirelings
A meeting of a mean idea to hold


G A
"When feeding time has come and gone
G A G A
They'll lose the heart and head for home
G A
Try to tell us something we don't know"


{Intro riff to end}

Everyone allowed, Everyone allowed

 

STRANGE (Wire)

{intro: G/ G/ G/ C x 4 }


G C
There's something strange going on tonight
G C
There's something going on that's not quite right
G C
Michael's nervous and the lights are bright
G C
There's something going on that's not quite right


E Esus4
There's something going on that wasn't here before
E Esus4
Keep your eyes glued to the floor
E Esus4
There's something strange going on tonight
E Esus4
There's something going on that's not quite right


G/ G/ G/ C (x 2)


G C
There's something strange going on tonight
G C
There's something going on that's not quite right
G C
Michael's nervous and the lights are bright
G C
There's something going on that's not quite right


E Esus4
There's something going on that wasn't here before
E Esus4
Keep your eyes glued to the floor
E Esus4
There's something strange going on tonight
E Esus4
There's something going on that's not quite right


{Solo:}

G5 C5 G5 C5
E---------------------------|---------------------------|
B-------3-0-----3-p0---5----|--------3-0-----3-p0---5---|
G-2p0----------------0---4b-|-0-2p0---------------0--4b-|
D-----0---------------------|------0--------------------|
A---------------------------|---------------------------|
E---------------------------|---------------------------|

G5 C5 G5 C5
E---------------------------|---------------------------|
B--------3-0----3-p0---5----|--------3-0----3-p0---5-0--|
G-0-2p0--------------0---4b-|-0-2p0--------------0-----4|
D------0--------------------|-------0-------------------|
A---------------------------|---------------------------|
E---------------------------|---------------------------|


E Esus4
There's something going on that wasn't here before
E Esus4
Keep your eyes glued to the floor
E Esus4
No one's going to say goodnight
E Esus4
There's something going on that's not quite right


G/ G/ G/ C (x 8)


End on G.

 

THE ONE I LOVE

Intro riff:

E-|----------------------0--0--0--0--0---------------------0--0--0--0--0--0--
B-|---------------3--s---5--3--5--5--3------------------3--s--5--3--5--5--3--
G-|---------------2-------------------------------------2--------------------
D-|---------------0-------------------------------------0--------------------
A-|------------0-------------------------------------0-----------------------
E-|-0--0--2s3-----------------------------0--0--2s3--------------------------


Em Dsus2 Em Em7
This one goes out to the one I love
Em Dsus2 Em Em7
This one goes out to the one I've left behind
Gsus4 D Am7 C
A simple prop to occupy my time
Em Dsus2 Em Em7
This one goes out to the one I love

{riff}
Fire
Fire


Em Dsus2 Em Em7
This one goes out to the one I love
Em Dsus2 Em Em7
This one goes out to the one I've left behind
Gsus4 D Am7 C
A simple prop to occupy my time
Em Dsus2 Em Em7
This one goes out to the one I love


{riff}
Fire (she's comin' down on her own, now)
Fire (she's comin' down on her own, now)


Guitar solo:
E-|--------------------------------------------------------------------------
B-|------3-----5--3--------3-----5--3--------3-----5--3--3h5--3--0-----------
G-|-2s4-----4---------2s4-----4---------2s4-----4-------------------2--0-----
D-|--------------------------------------------------------------------------
A-|--------------------------------------------------------------------------
E-|--------------------------------------------------------------------------


E-|--------------------------------------------------------------------------
B-|-----------------------3--------------------------------------------------
G-|---------0--0--2--2s4-----4--2--0-----------------------------------------
D-|-0--0h2----------------------------0--0h2--4--2-------2-------------------
A-|--------------------------------------------------------------------------
E-|-------------------------------------------------3~~-----------0----------


Em Dsus2 Em Em7
This one goes out to the one I love
Em Dsus2 Em Em7
This one goes out to the one I've left behind
Gsus4 D Am7 C
Another prop has occupied my time
Em Dsus2 Em Em7
This one goes out to the one I love


{riff}
Fire (she's comin' down on her own, now)
Fire (she's comin' down on her own, now)
Fire (she's comin' down on her own, now)
Fire (she's comin' down on her own, now)


End:
E-|------------------------0--
B-|------------3-----0-----0--
G-|------------2-----0-----0--
D-|------------0-----1-----2--
A-|---------0--------------2--
E-|-0--2s3-----------------0--

 

FIREPLACE

Intro:

E -2-----2-----2-----2-----
B ---0-----0-----0-----0---
G -----3-----3-----3-----3-
D -------------------------


F# A D C
Crazy crazy world crazy crazy times
F# A D C
Crazy crazy world crazy crazy times

F G F G
Hang up your chairs to better sweep
C Bb
Clear the floor to dance
F G F G
Shake the rug into the fireplace


F# A D C
Crazy crazy world crazy crazy times
F# A D C
Crazy crazy world crazy crazy times

F G F G
Hang up your chairs to better sweep
C Bb
Clear the floor to dance
F G F G
Sweep the floor into the fireplace


{Instrumental break}: | F# | A | F# | A | F# | A | D | C |


F G F G
Hang up your chairs to better sweep
C Bb
Clear the floor to dance
F G F G
Throw the chairs into the fireplace


F G F G
Hang up your chairs to better sweep
C Bb
Clear the floor to dance
F G F G
Throw the walls into the fireplace


{Ending}: Continue F# A progression

 

LIGHTNIN' HOPKINS

{Main riff:}
e----------------------------|
B---------------0let ring----| repeat sl/ (slide) br (bend,release)
G--2-2------2-2-2sl/4b(5)r-0-|
D------2---------------------|


{Chorus riff}:
e--0---00000...--0--0-0---0--0-0-0-0--0-0---0--0-0-0-|repeat
B--3sl/55555...--3--3-3sl/5--5-5-5-3--3-3sl/5--5-5-5-|


{Bridge riff}:
let ring
e----0-------0------------0--------0-----|
B--------------0---------------------0---| repeat
G-2---2sl/4------4-4sl/5----5sl/4------4-|


{Intro: no guitar, just drums}

{Main riff}


{Main riff}
When I lay myself to sleep pray that I don't go to deep
Lightnin' won Lightin' won
Because it's cold down gold down there, crow!


{Chorus riff}


{Main riff}
Flat lands low lands on the track
Shows the water pan the track
Lightnin' won lightnin' won
Close up hands to silhouette, crow!


{Chorus riff}
Ooohhh, Ooohhh...
{Chorus riff}
Ooohhh, Ooohhh...


{Bridge riff}
Lightnin' won, lightnin' won


{Break: no guitar, just drums}


{Main riff x 4}


{Main riff}
Hound bark on the track
Hound crow hold onto your hat
Lightnin' won, lightnin' won
Low lands timberlands bad lands bird lands


{Chorus riff}
Ooohhh, Ooohhh...
{Chorus riff}
Ooohhh, Ooohhh...
{Chorus riff}
Ooohhh, Ooohhh...
{Chorus riff}
Ooohhh, Ooohhh...


{Main riff to end}

 

KING OF BIRDS

{Play the "D" chord like this: xx0235
And play around with it, like descending on that high E string (frets->5,3,2)
through one line of verse.}


Intro : D

D
A thumbnail sketch, a jeweler's stone
A mean idea to call my own
Old man don't lay so still you're not yet young
There's time to teach, point to point
Point observation, children carry reservations
G
Standing on the shoulders of giants leaves me cold, leaves me cold.
F# A D
A mean idea to call my own, a hundred million birds fly

D
Singer sing me a given, singer sing me a song
Standing on the shoulders of giants everybody's looking on
(Old don't lay so still you're not yet young)
G
Standing on the shoulders of giants leaves me cold
F# A B
A mean idea to call my own, a hundred million birds fly away
E B E --> D
away... awaaaaaaayyyyyyyyyyyyyyyyieeeeeee


D
I am king of all I see, my kingdom for a voice
Old man don't lay so still, you're not yet young
There's time to teach, point to point
Point observation, children carry reservations
G
Standing on the shoulders of giants, leaves me cold
F# A D
A mean idea to call my own, a hundred million birds fly away.
D
Everybody hit the ground. Everybody hit the ground.

 

ODDFELLOWS LOCAL 151

Intro:

"C" Chord
(palm mute)
------------------0--0--0-------
------------------1--1--1-------
------------------0--0--0-------
------------------2--2--2-------
------------------3--3--3-------
--0--0--0--0--------------------


solo:
-----------------------
-----------5-3p0h3-----
---5-4-------------4-0-
-------5---------------
-----------------------
-----------------------


(use intro/verse from above)
Oddfellows local 151 behind the firehouse
Where Peewee sits to prove a sage to teach
Peewee gathered up his proof
Reached up and scratched his head
Fell down and hit the ground again

Em C Em Am7
Firehouse. Firehouse.

(use intro/verse from above)
Why do the heathens rage behind the firehouse
Where Peewee sits upon the wall to preach?
This boy and girl that gather pearls
Of wisdom falling from his mouth
Wash off the blood, wash off the rum

Em C Em Am7
Firehouse. Firehouse.

Oddfellows Local 151 behind the firehouse
Where PeeWee sits upon the wall to preach.
This boy and girl that gather pearls
Of wisdom falling from his mouth
Wash off the blood, wash off the 151.

Em C Em Am7
Firehouse. Firehouse.
Em C Em Am7
Firehouse. Firehouse.

 

DOWNLOAD TYZDNA


R.E.M. - IHT_U_EDIYTW [dubmix]
DOWNLOAD


FLASH PLAYER

flash music player

ANKETA

Vas favorit spomedzi doposial zverejnenych skladieb?

Oh My Heart
Mine Smell Like Honey
Discoverer
Uberlin
It Happend Today

Predbezne vysledky


MAILINGLIST

Chcete byť vždy v čas informovaný o novinkách a aktualitách okolo R.E.M.?
Zaregistrujťe sa!




VÝROKY



FOTO 1/2-MESIACA



CHAT


WEB NEWS


26.01. 2011 - Nova anketa


PARTNERI


Nočná Hudba

Codegravity

Radiohead.sk

Hudba



ICQ


Up 132-246-975
Majk 94-967-086


INFO

Nastaviť ako homepage
Zaradiť medzi obľúbené
Zobrazení za dnes
171
Aktuálna návšteva
1 clovek

Copyright © 2001-2004, R.E.M. fans Czechoslovakia. Design by Up