TABULATURY | Automatic For The People
DRIVE

Intro:

Dm
||---------1-----------1----------1-----1--------
||-------------3-----------3-------------------3-
||-----2-----------------------------0----------- x 3
||-0---------------0----------0-------------3----
||-----------------------------------------------
||-----------------------------------------------


||---------1-----------1-------------------------
||-------------3-----------3-------3----3------3-
||-----2---------------------------0h2--0------0-
||-0---------------0----------0-------------3----
||-----------------------------------------------
||-----------------------------------------------

Dm
Smack, crack, bushwhacked
G Dm (with Intro riff)
Tie another one to the racks, baby

Dm
Hey kids, Rock and Roll
G Dm (with intro riff)
Nobody tells you where to go, baby

F
What if I ride, what if you walk
Am
What if you rock around the clock
G G
Tick, tock, tick, tock
Em
What if you did, what if you walk
Em G Dm (with intro riff)
What if you tried to get off, baby

Dm
Hey kids, where are you
G Dm Dm
Nobody tells you what to do, baby

Dm
Hey kids, shake a leg
G Dm (with intro riff)
maybe you're crazy in the head, baby

F
Maybe you did, maybe you walked
Am
Baby you rocked around the clock
G G
Tick, tock, tick, tock
Em
Maybe I ride, maybe you walk
Em G Dm (with intro riff)
Maybe I drive to get off, baby

C
Hey kids, shake a leg
Dm (with intro riff)
maybe you're crazy in the head, baby

C
Ollie Ollie Ollie Ollie Ollie
C Dm (with intro riff)
Ollie Ollie in come free, baby

C
Hey kids, where are you
Dm (with intro riff)
Nobody tells you what to do, baby

Dm
Smack, crack, shackalack
G Dm (with intro riff)
Tie another one to your back, baby

Dm
Hey kids, Rock and Roll
G Dm (with intro riff)
Nobody tells you where to go, baby

F
Maybe you did, maybe you walked
Am
Maybe you rock around the clock
G G
Tick, tock, tick, tock
Em
Maybe I ride, maybe you walk
Em G Dm (with intro riff)
Maybe I drive to get off, baby

Em
Hey kids, where are you
Em G Dm (with intro riff)
Nobody tells you what to do, baby

Em
Hey kids, Rock and Roll
E G Dm (with intro riff)
Nobody tells you where to go, baby, baby, baby

Ending: Dm (Strum)


Electric guitar solo tabbed by Sam Giffney (giffjone@iconz.co.nz)

E-5-3-------------------5-3------------------
B-----6-5-3---5/6---3-------6--3---5/6---3---
G--------------------------------------------
D--------------------------------------------
A--------------------------------------------
E--------------------------------------------

E-5-3-------------------5-3------------------
B-----6-3-------------------6--3---5/6---3---
G---------5---5/7---5------------------------
D--------------------------------------------
A--------------------------------------------
E--------------------------------------------

E-5-3----------------------------------------
B-----6-3------------------------------------
G---------5---5/7---0---2-0------------------
D---------------------------3-2-0------------
A--------------------------------------------
E--------------------------------------------

 

TRY NOT TO BREATHE

Intro slide tab:
E------------------------------------------
B------------------------------------------
G-5/7------------------5/7-----------------
D----7---------9/7-5-------7---------------
A-----9/10\9-5---------------9/10\9-7\5----
E------------------------------------------


Intro: D Am C G Dsus4 Am C G

D Am
I will try not to breathe,
C G Dsus4 Am
I can hold my head still with my hands at my knees
C G D Am C
These eyes are the eyes of the old,
G Dsus4 Am C G
shiver and fold.

D Am
I will try not to breathe,
C G Dsus4 Am
This decision is mine I have lived a full life
C G Am C
and these are the eyes that I want you to remember

G D G D
Oh.....
Am G D G D
I need something to fly over my grave again
Am C
I need something to breathe

D Am C G
I will try not to burden you. I can hold these inside.
Dsus4 Am C G D Am C
I will hold my breath until all these shivers subside
G Dsus4 Am C G
Just look in my eyes

D Am C G Dsus4 Am
I will try not to worry you. I have seen things that you will never see.
C G D Am C G Dsus4 Am C G
Leave it to memory me. I shudder to breathe

Am C G D G D
I want you to remember. Oh, (you will never see).
Am
I need something to fly
(something to fly)
G D G D
Over my grave again (you will never see)
Am
I need something to breathe
(something to breathe)
G D
Baby don't shiver now,
(I have seen things you)
G D
Why do you shiver now
(will never see.)
Am
I need something to fly
G D G D
Over my grave again
(I have seen things you will never see)
Am
I need something to breathe


Bridge: Em Am Em Am C
Oh.......... oh....... Oh....... oh.......


D Am C G Dsus4 Am
I will try not to worry you. I have seen things that you will never see.
C G D Am C G Dsus4 Am C G
Leave it to memory me. Don't dare me to breathe

Am C G D G D
I want you to remember. Oh, (you will never see).
Am
I need something to fly
(something to fly)
G D G D
Over my grave again (you will never see)
Am
I need something to breathe
(something to breathe)
G D
Baby don't shiver now,
(I have seen things you)
G D
Why do you shiver now
(will never see.)
Am
I need something to fly
G D G D
Over my grave again
(I have seen things you will never see)
Am
I need something to breathe

Am G D G D
I need something to breathe (I have seen things you will never see.)
Am C
I want you to remember

END: G

 

THE SIDEWINDER SLEEPS TONIGHT

(intro)

D////G//C//Am///
D////G//C//Am///
D////G//C//Am///

Then:

C Em
e---------0-----|---------0---------
B-------------1-|-------------0-----
G--0------------|--0----------------
D--2------------|--2----------------
A--3------------|--2----------------
E---------------|--0----------------


F C
This here is the place where I will be staying
F
There isn't a number, you can call the pay phone
C F
Let it ring a long long long long time
Am C F C
If I don't pick up, hang up, call back, let it ring some more, Ohhhhhhh...
F Am C
If I don't pick up, pick up, the sidewinder sleep, sleep, sleeps in a coil

D D/F# D D/F# G5 C9 G5 Am
Call me when you try to wake her up, call me when you try to wake her
D D/F# D D/F# G5 C9 G5 Am
Call me when you try to wake her up, call me when you try to wake her
D D/F# D D/F# G5 C9 G5 Am
Call me when you try to wake her up, call me when you try to wake her

C Em {Play using above riff}
Ohhhh.....

F
There are scratches all around the coin slot
C F
Like a heartbeat baby trying to wake up
C
But this machine can only swallow money
F
you can't lay a patch by computer design
Am C
Just a lot of stupid, stupid signs

F C
Tell her
F C F
Tell her she can kiss my ass, then laugh and say that you were only kidding.
Am C
That way she'll know that it's really, really, really, really me, me.

D D/F# D D/F# G5 C9 G5 Am
Call me when you try to wake her up, call me when you try to wake her
D D/F# D D/F# G5 C9 G5 Am
Call me when you try to wake her up, call me when you try to wake her
D D/F# D D/F# G5 C9 G5 Am
Call me when you try to wake her up, call me when you try to wake her

C Em {Play using above riff}
Ohhhh.....

F
Baby, instant soup doesn't really grab me.
C F
Today I need something more sub - s(tub) - sub - substantial.
C
A can of beans or black-eyed peas, some Nescafe and ice
F Am C
A Candy bar, a fallen star, or a reading from Doctor Suess

D D/F# D D/F# G5 C9 G5 Am
Call me when you try to wake her up, call me when you try to wake her
D D/F# D D/F# G5 C9 G5 Am
Call me when you try to wake her up, call me when you try to wake her
D D/F# D D/F# G5 C9 G5 Am
Call me when you try to wake her up, call me when you try to wake her

C Em {Play using above riff}
Ohhhh.....

Bridge:

{Here's how to pick the chords in the bridge}:

Bm Am C
e---------2------|---------0------|-------0------
B-------------3--|-------------1--|------------1-
G----------------|----------------|--------------
D----------------|----------------|--------------
A-2--------------|-0--------------|-3------------
E----------------|----------------|--------------


Bm Am
The cat in the hat came back, wrecked a lot of havoc on the way.
Bm Am
Always had a smile and a reason to pretend,
Bm Am
But their world has flat backgrounds and little need to sleep, but to dream
C Em
The sidewinder sleeps on his back.

D D/F# D D/F# G5 C9 G5 Am
Call me when you try to wake her up, call me when you try to wake her
D D/F# D D/F# G5 C9 G5 Am
Call me when you try to wake her up, call me when you try to wake her
D D/F# D D/F# G5 C9 G5 Am
I can always sleep standing up. Call me when you try to wake her

C Em {Play using above riff}
Ohhhh.....

D D/F# D D/F# G5 C9 G5 Am
Call me when you try to wake her up, call me when you try to wake her
D D/F# D D/F# G5 C9 G5 Am
I can always sleep standing up. Call me when you try to wake her
D D/F# D D/F# G5 C9 G5 Am
I can always sleep standing up. Call me when you try to wake her

C Em D/A
We've got to moogie moogie move on this one.

 

EVERYBODY HURTS

Intro: D G D G D

G D G D
When the day is long and the night, the night is yours alone
G D G
When you're sure you've had enough of this life, well hang on

E(low)---3---2---0--

Em A Em A Em
Don't let yourself go, everybody cries
A D G D G
and everybody hurts sometimes

D G D
Sometimes everything is wrong, now it's time to sing along
G D
When your day is night alone (hold on, hold on)
G D
If you feel like letting go (hold on)
G D G
When you think you've had too much of this life, well hang on

E(low)---3---2---0--

Em A Em A Em
Everybody hurts, take comfort in your friends
A
Everybody hurts,


Bridge:
F# Bm F# Bm F# Bm
Don't throw your hand, oh no, don't throw your hand
C G C Am
when you feel like you're alone, no, no, no, you are not alone


D G D G
If you're on your own in this life, the days and nights are long
D G D G
When you think you've had too much, of this life, to hang on

E(low)---3---2---0--

Em A Em
Well everybody hurts, sometimes
A Em A D G
Everybody cries, everybody hurts, sometimes
D G D/A G D
But everybody hurts sometimes so hold on, hold on, hold on,
G D G D G
Hold on, hold on, hold on, hold on, hold on,
D G D G
Everybody hurts
D G D G D G
You are not alone


Picking patten for the chords:
D G
E----------2-----------2-------------3-----------3------------------
B--------3---3-------3---3---------3---3-------3---3--------------------------
G------2-------2---2-------2-----0-------0---0---------------------
D----0-----------0--------------------------------------------------
A--------------------------------------------------------------------
E------------------------------3-----------3------------------------

(Note: the chords below may be picked or strummed)
A E
E----------0-----------0-------------0-----------0------------------
B--------2---2-------2---2---------0---0-------0---0---------------
G------2-------2---2-------2-----1-------1---1---------------------
D----2-----------2--------------------------------------------------
A------------------------------2-----------2------------------------
E--------------------------------------------------------------------

 

NEW ORLEANS INSTRUMENTAL #1

Gtr. 1
w/trem. effect Rhy. Fig 1 ---------------------play 4 times
E-|---------------|--------------|-----------------|----------------|
B-|---------------|--------------|-----------------|----------------|
G-|---------------|--------------|o----------10----|----------9----------9---o|
D-|--10-----------|--------------|o----------10----|---------10---------10---o|
A-|---8-----------|--------------|----8------------|---7-----------7----------|
E-|---8-----------|--------------|----8------------|---8-----------8|

Gtr. 2 w/Rhy. Fig 1 (2 times)
E-|-----------|-------------|-------------|-------------------|
B-|-----------|-------------|-------------|-------------------|
G-|-o--7------|-9-----------|-7-----------|------------------o|
D-|-o---------|-------------|-------------|--7---------5-----o|
A-|-----------|-------------|-------------|-------------------|
E-|-----------|-------------|-------------|-------------------|
w/ distortion

w/Rhy. Fig 1 (6 times)
E-|----------------|-----------------------|---------------|--------|
B-|-8--------------|--10----------8--------|---------------|--------|
G-|----------------|-----------------------|-9---------7---|--5---------4-----|
D-|----------------|-----------------------|---------------|--------|
A-|----------------|-----------------------|---------------|--------|
E-|----------------|-----------------------|---------------|--------|

fdbk.
E-|----------------|-----------------------|---------------|--------|
B-|----------------|-----------------------|---------------|--------|
G-|-7--------------|---9-------------------|--7------------|--------|
D-|----------------|-----------------------|---------------|--------|
A-|----------------|-----------------------|---------------|--7-----|
E-|----------------|-----------------------|---------------|--------|
fdbk. pitch: B
fdbk.
E-|----------------|-----------------------|-------------------|
B-|----------------|-----------------------|-------------------|
G-|----------------|-----------------------|-------------------|
D-|----------------|-----------------------|-------------------|
A-|---8------------|---5------(5)-/-7-\-5--|--5----------------|
E-|----------------|-----------------------|-------------------|

Gtr. 2 fdbk.
E-|------------------------|-----------------|----------------|-----|
B-|------------------------|-----------------|----------------|-----|
G-|------------------------|-----------------|-----------5----|-----|
D-|------------------|-------------|---5------------|--7-------5----|
A-|----0-------------------|-----------------|----------------|-----|
E-|------------------------|-----------------|----------------|-----|

Gtr. 1
E-|-------------------|-------------------|-----------------|-------|
B-|-------------------|-------------------|-----------------|-------|
G-|-2--2---2-----2----|--4--4----4---4----|--2--2---2---2---|-4---4---4---4---|
D-|------2----2-----4-|--------2---2---2--|-------2---2---2-|-------2---2---2-|
A-|-------------------|-------------------|-----------------|-------|
E-|-------------------|-------------------|-----------------|-------|

Gtr. 2 fdbk. fdbk.
E-|----------------|-------------------|----------------|-----------|
B-|----------------|-------------------|----------------|-----------|
G-|----------------|-------------------|-------5--------|-----------|
D-|----------------|-------------------|--5-------------|---7-------|
A-|-0--------------|-------------------|----------------|-----------|
E-|----------------|-------------------|----------------|-----------|
fdbk. pitch: C#
Gtr. 1
E-|-----------------|--------------------|-------------------|------|
B-|-----------------|--------------------|-------------------|------|
G-|-2---2---2---2---|-4-----4-----4-----4-----|-2-----2-----2-----2----|-4----|
D-|-------2---2---2-|----2-----2-----2-----2--|----2-----2-----2-----2-|------|
A-|-----------------|--------------------|-------------------|------|
E-|-----------------|--------------------|-------------------|------|

Gtr. 1 w/Rhy. Fig 1 (9 times) 1/2 bend
E-|---------------|------------------|-------------------|----------|
B-|------------|----------8----|--10-------12------|--13------12b--|
G-|--7------------|--9---------------|-------------------|----------|
D-|---------------|------------------|-------------------|----------|
A-|---------------|------------------|-------------------|----------|
E-|---------------|------------------|-------------------|----------|


E-|---------------|-----------------|-----------------|-------------|
B-|---------------|-----------------|-----------------|-------------|
G-|--7------------|--9--------------|---7-------------|-------------|
D-|---------------|-----------------|-----------------|--7---------5|
A-|---------------|-----------------|-----------------|-------------|
E-|---------------|-----------------|-----------------|-------------|


E-|--------------|----------------|-----------------|---------------|
B-|--------------|----------------|-----------------|------------8--|
G-|--4-----------|----------------|---7--------9----|---------------|
D-|---------5----|---7------------|-----------------|---------------|
A-|--------------|------------5---|-----------------|---------------|
E-|--------------|----------------|-----------------|---------------|

Begin fade fdbk.
E-|--------------|----------------|---------------------|-----------|
B-|--------------|----------------|---------------------|-----------|
G-|-9--------7---|---5-------4----|---------------------|----------|
D-|--------------|----------------|---5-------(5)-/-7---|-----------|
A-|--------------|----------------|---------------------|-----------|
E-|--------------|----------------|---------------------|-----------|

Fade out
E-|------------------|----------------|--------------|--------------|
B-|------------------|----------------|--------------|--------------|
G-|------------------|----------------|--------------|--------------|
D-|-5----------------|---7------------|--5-----------|--7----------|
A-|------------------|----------------|--------------|--------------|
E-|------------------|----------------|--------------|--------------|

 

SWEETNESS FOLLOWS

Tune down one whole step : DGCFAD

INTRO: E5

E5
Readying to bury your father and your mother
What did you think when you lost another?
I used to wonder, why did you bother?
Distanced from one, blind to to the other.

Listen here, my sister and my brother.
What would you care if you lost the other?
I always wonder why did we bother?
Distanced from one, deaf to the other.

G6 A6sus4 G6 A6sus2
Oh, oh, but sweetness follows.

E5
It's these little things, they can pull you under.
Live your life filled with joy and wonder
I always knew this all together thunder was lost in our little lives.

G6 A6sus4 G6 A6sus2
Oh, oh, but sweetness follows.
G6 A6sus4 G6 A6sus2
Oh, oh, but sweetness follows.


Interlude:

Tune down one whole step : DGCFAD
fdbk.
D-|-------------------|---(0)h2-------------0----|------------------|
A-|-------------------|--------------------------|---0--------------|
F-|-------------------|--------------------------|------------------|
C-|-------------------|--------------------------|------------------|
G-|--2----------------|--------------------------|------------------|
D-|-------------------|--------------------------|------------------|


D-|------0-----9-----|--------------------------|-----0---0h20-----|
A-|-(0)----------10--|-10h12----12--12h10h0----|----------------2-|
F-|------------------|---------------------------|--------|
C-|------------------|---------------------------|--------|
G-|------------------|---------------------------|--2-----|
D-|------------------|---------------------------|--------|

full bend w/fdbk.
D-|-----------------------------|-----------------------|---0-------|
A-|-2----------0----------------|-------------0---------|-----------|
F-|-----------------------------|-----------------------|-----------|
C-|-----------------------------|-----------------------|-----------|
G-|-----------------------------|-----------------------|-----------|
D-|-----------------2b----------|--0--------------------|-----------|


E5
It's these little things, they can pull you under
Live your life filled with joy and thunder
Yeah, yeah we were all together lost in our little lives.
Oh, oh.

G6 A6sus4 G6 A6sus2
Oh, oh, but sweetness follows.
G6 A6sus4 G6 A6sus2
Oh, oh, but sweetness follows.

 

MONTY GOT A RAW DEAL

Intro: Gm Bb
Gm Bb
Gm Bb
Dm C G

Gm Bb Gm Bb
Monty this seems strange to me, the movies had that movie thing
Gm Bb Dm C G
But nonsense has a welcome ring and heros don't come easy

Gm Bb Gm Bb
Now nonsense isn't new to me, I know my head I know my feet
Gm Bb Dm C G Dm C G
But mischief knocked me in the knees so just let go, just let go

Gm Bb Gm Bb
I saw the ocean meet the man, I saw you buried in the sand
Gm Bb Dm C G
A friend was there to hold my hand, so walk on by

Gm Bb Gm Bb
So I went walking through the stream, I saw you strung up in a tree
Gm Bb Dm C G Dm C G
A woman out there said to me, said hold your tongue, hold your tongue

Bb Dm C G Bb Dm C G
You don't owe me anything, you don't want this sympathy [waste your breath]
Bb Dm C Dm C G
Don't you waste your breath [waste your breath] for the silver screen

Gm Bb Gm Bb
That nonsense doesn't mean a thing, they tried to bust you in a sting
Gm Bb Dm C G
But virtue isn't everything so don't waste time

Gm Bb Gm Bb
Now Here's a rhyme that you must hear, put this on your reel to reel
Gm Bb Dm C G Dm C G
Mischief through a rotten deal, Monty's laying low, he is laying low
Dm C G Dm C G
Just let go, just let go

Bb Dm C G Bb Dm C G
You don't owe me anything, you don't want this sympathy [waste your breath]
Bb Dm C Bb Dm C G
Don't you waste your breath [waste your breath] Monty this seems strange to me

 

STAR ME KITTEN

Gadd6
Keys cut, three for the price of one.
Bb C Bb C
Nothing's free, but guaranteed for a lifetimes use.
Bb C NC Gadd6
I've changed the locks and you can't have one.

You, you know the other two.
Bb C Bb
The brakes have worn so thin that you could hear,
C Bb C NC Gadd6
I hear them screeching through the door from our driveway

Hey love, look into your glove box heart.
Bb C Bb C
What is there for me inside? This love is tired.
Bb NC C D5
I've changed the locks. Have I misplaced you?

E5 G5 C D5 E5 G5 C
Have we lost our minds? Will this never end?
D5 E5 G5 NC
It could depend on your take.

Gadd6
You. Me. We used to be on fire.
Bb C Bb C Bb C
If keys are all that stand between, can I throw in the ring? No gasoline.
NC
Just fuck me kitten.

Bb C Bb C
You are wild, and I'm in your possession.
Bb C NC
Nothing's free, so fuck me kitten.
Bb C NC (Gadd6)
I'm in your possession, so fuck me kitten.

 

MAN ON THE MOON

Intro slide tab:
E--------------------
B------5-----7-----5-
G----/5-5--/7-7--/5-5
D----/5----/7----/5--
A--------------------
E--------------------


C Dadd4/add2
|-0-------0---0-------0---0---0-|-0-------0---0-------0---0---0-|
|-1-------1---1-------1---1---1-|-1-/-3---3---3-------3---3---3-|
|-0-------0---0-------0---0---0-|-0-------0---0-------0---0---0-|
|-2-------2---2-------2---2---2-|-2-/-4---4---4-------4---4---4-|
|-3-------3---3-------3---3---3-|-3-/-5---5---5-------5---5---5-|
|-------------------------------|---------------------------------|

C
|-0-------0---0-------0---0---0-|-0-------0---0-------0---0---0-|
|-3-\-1---1---1-------1---1---1-|-1-------1---1-------1---1---1-|
|-0-------0---0-------0---0---0-|-0-------0---0-------0---0---0-|
|-4-\-2---2---2-------2---2---2-|-2-------2---2-------2---2---2-|
|-5-\-3---3---3-------3---3---3-|-3-------3---3-------3---3---3-|
|-------------------------------|---------------------------------|

Repeat 4 measures.

VERSE:

C Dadd4/add2 C
Mott the Hoople and the game of Life, yeah, yeah, yeah, yeah.
C Dadd4/add2 C
Andy Kaufman in the wrestling match, yeah, yeah, yeah, yeah.
C Dadd4/add2 C
Monopoly, Twenty-one, checkers, and chess, yeah, yeah, yeah, yeah.
C Dadd4/add2 C
Mister Fred Blassie, and a breakfast mess, yeah, yeah, yeah, yeah.
C Dadd4/add2 C
Let's play Twister, let's play Risk, yeah, yeah, yeah, yeah.
C Dadd4/add2 C
I'll see you heaven if you make the list, yeah, yeah, yeah, yeah.


Am G Am G
Now Andy did you hear about this one, tell me are you locked in the punch?
Am G C D
Hey Andy are you goofing on Elvis? Hey baby, are we losing touch?


G Am C(III) Bm G Am D
If you believed they put a man on the moon, man on the moon.
G Am C(III) Bm Am
If you believe there's nothing up my sleeve, then nothing is cool.


C Dadd4/add2 C
Moses went walking with the staff of wood, yeah, yeah, yeah, yeah.
C Dadd4/add2 C
Newton got beaned by the apple good, yeah, yeah, yeah, yeah.
C Dadd4/add2 C
Egypt was troubled by the horrible asp, yeah, yeah, yeah, yeah.
C Dadd4/add2 C
Mister Charles Darwin had the gall to ask, yeah, yeah, yeah, yeah.


Am G Am G
Now Andy, did you hear about this one? Tell me, are you locked in the punch?
Am G C D
Hey Andy are you goofing on Elvis? Hey baby, are you having fun?


G Am C(III) Bm G Am D
If you believed they put a man on the moon, man on the moon.
G Am C(III) Bm Am
If you believe there's nothing up my sleeve, then nothing is cool.


{Guitar Solo #1:}

Em D Em
E-|---------12------------|-------------------------|--------12-----|
B-|-/-12---------12---12--|---------7----8p7-----0--|-/-12--------12---12-----|
G-|-----------------------|-----------7-------7-----|---------------|
D-|-----------------------|--/-7--------------------|---------------|
A-|-----------------------|-------------------------|---------------|
E-|-----------------------|-------------------------|---------------|

D Em D
E-|------------------------|---------12------------|----------------|
B-|-------7-----8p7------0-|--/-12--------12---12--|---------7--------7-------|
G-|---------7---------7----|-----------------------|------7-----7--|
D-|-/-7--------------------|-----------------------|-/-7-----------7|
A-|------------------------|-----------------------|----------------|
E-|------------------------|-----------------------|----------------|

D
E-|------------------------|----------------------------------------|
B-|-/-------7----8p7-------|----------------------------------------|
G-|---7----------------7---|----------------------------------------|
D-|------7-----------------|----------------------------------------|
A-|------------------------|----------------------------------------|
E-|------------------------|----------------------------------------|


C Dadd4/add2 C
Here's a little agit for the never believer, yeah, yeah, yeah, yeah
C Dadd4/add2 C
Here's a little ghost for the offering, yeah, yeah, yeah, yeah
C Dadd4/add2 C
Here's a truck stop instead of Saint Peter's, yeah, yeah, yeah, yeah
C Dadd4/add2 C
Mister Andy Kaufman's gone wrestling, yeah, yeah, yeah, yeah


Am G Am G
Now Andy did you hear about this one? Tell me are you locked in the punch?
Am G C D
Hey Andy are you goofing on Elvis? Hey baby, are we losing touch?


{Guitar Solo #2:}

Em D
E-|-/12-----12-------------|-------------------------------|
B-|-/12-----------12-------|--------7-------8p7---------0--|
G-|-/12----------------12--|------------7-----------7------|
D-|------------------------|--/-7--------------------------|
A-|------------------------|-------------------------------|
E-|------------------------|-------------------------------|

Em D
E-|---------12---------------|------------------------------|-------|
B-|-/12-----------12---------|------7-------8p7----------0--|------|
G-|-/12-----------------12\--|--7-------7---------7---------|------|
D-|--------------------------|------------------------7-----|-------|
A-|--------------------------|------------------------------|-------|
E-|--------------------------|------------------------------|-------|

Em D
E-|-------12------------------|------------------------|------------|
B-|-/12--------12---------0---|---------7-----------7--|--------7---8p7---7---|
G-|-/12-------------12--------|--/7---------7----------|-7---------|
D-|---------------------------|--/7-------------7------|----7-------|
A-|---------------------------|--------------------|----------------|
E-|---------------------------|------------------------|------------|


G Am C(III) Bm G Am D
If you believed they put a man on the moon, man on the moon.
G Am C(III) Bm Am
If you believe there's nothing up my sleeve, then nothing is cool.

G Am C(III) Bm G Am D
If you believed they put a man on the moon, man on the moon.
G Am C(III) Bm Am
If you believe there's nothing up my sleeve, then nothing is cool.

G Am C(III) Bm G Am D
If you believed they put a man on the moon, man on the moon.
G Am C(III) Bm Am
If you believe there's nothing up my sleeve, then nothing is cool.

End on Em.

 

NIGHTSWIMMING

Intro: (Rhy. Fig. 1)

G C G D5
E-|--------------------|--------------|--------------------|------------------|
B-|--------------------|--1-----------|--------------------|--3---------------|
G-|-----0---2-------0--|--0-----------|-----0---2-------0--|--2---------------|
D-|-0---------------0--|--2-----------|-0---------------0--|--0---------------|
A-|-----------------2--|--3-----------|-----------------2--|------------------|
E-|-3-----------3------|--------------|-3-----------3------|------------------|
(Piano arranged for guitar)


Verses: (Rhy. Fig. 2)

G C D5 G
E-|--------------------|---------------------------------|--------------------|
B-|-------0------------|-1-3--1--1--0---3-0--------------|-------0------------|
G-|----0--0----0--0----|-0--------------2------2---------|----0--0----0--0----|
D-|-0----------------0-|-2--------------0----------4---2-|-0----------------0-|
A-|------------2-------|-3-------------------------------|------------2-------|
E-|-3--------3---------|---------------------------------|-3--------3---------|


C A C D5
E-|-------------------------|--------------------|----------------------------|
B-|-1-3--1-1-0-2-0----------|-1------------------|-3--------------------------|
G-|-0----------2----2--0----|-0-0-2----0--2------|-2-0--2------0--0-----------|
D-|-2----------2----------2-|-2-----2----------2-|-0-------0------0---4--2--4-|
A-|-3----------0------------|-3-------------3----|-------------0---------0----|
E-|-------------------------|----------3---------|----------------------------|


G C D5 G C A | C | D5 |
Nightswimming deserves a quiet night.
G C D5 G C A |
The photograph on the dashboard, taken years ago,
C D5
turned around backwards so the windshield shows.
G C D5 G C A |
Every streetlight reveals the picture in reverse.
C D5
Still, it's so much clearer.
G C D5 G
I forgot my shirt at the water's edge.
C A C | D5 |
The moon is low tonight.


{Play Rhy. Fig. 1}


G C D5 G
Nightswimming deserves a quiet night.
C D5 G5
I'm not sure all these people understand.
C D5 G
It's not like years ago,
C A C D5 G5
The fear of getting caught, of recklessness and water.
C D5 G
They cannot see me naked.
C A C D5 G
These things, they go away, replaced by everyday.

C G C A |
Nightswimming. Remembering that night.
C D5 C C D5 |
September's coming soon. I'm pining for the moon.
G C A C
And what if there were two side by side in orbit
D5 G
around the fairest sun?
C D5 G C A C | D5 |
That bright, tight forever drum could not describe nightswimming.

G C D5 G C A |
You, I thought I knew you. You, I cannot judge.
C D5
You, I thought you knew me.
G C D5 G C
This one laughing quietly underneath my breath.
A C | D5 |
Nightswimming.


{Play Rhy. Fig. 1}

{Interude:}

G C G C A
E-|--------------|--------------------|----------------|----------------------|
B-|-------12--12-|-12-----------------|----------------|-12-------------------|
G-|--------------|------14-12---------|-------------12-|-----14--12--14----12-|
D-|--------------|-------------14--12-|---------12-----|----------------14----|
A-|--------------|--------------------|----------------|----------------------|
E-|--------------|--------------------|----------------|----------------------|
(Oboe arranged for guitar)

C D5
E-|-----------------------|----------------------------|
B-|-------12--------------|------12---12---------------|
G-|-(12)------14---12-----|---------------14--12---14-|
D-|--------------------14-|-12-------------------------|
A-|-----------------------|----------------------------|
E-|-----------------------|----------------------------|

G C
The photograph reflects,
D5 G C
every streetlight a reminder.
A C D5 G | C D5|
Nightswimming deserves a quiet night,
G C A C | D5 |
deserves a quiet night.

{Outro:}

G C D5 G
E-|---------------|-------12-------------|--------------------------|
B-|--12---13---15-|-15------------------|-12/\/\/\/\/---15--13--13--12-------|
G-|---------------|------------12---14--|--------------------------|
D-|---------------|----------------------|--------------------------|
A-|---------------|----------------------|--------------------------|
E-|---------------|----------------------|--------------------------|

C A C D5
E-|---------------------------|----------------|--------------------|
B-|-12------------------------|------12-------|-12----------------|
G-|----14-14--12-12----------|-12------14-12-|-----14-14--12-12--11------11-|
D-|-----------------14-12-14-|----------------|-----------------------14-----|
A-|---------------------------|----------------|--------------------|
E-|---------------------------|----------------|--------------------|

C A C D5 G
E-|--------------|-----------------|-----------------------|--------|
B-|-12-----------|--12-------------|-----12--12-----------|-----0--|
G-|----14---12--14------12-|------14---12-----|-------------14-12-14-|-12/-0--|
D-|-------14-----|--------------14-|-12-------------------|-----0--|
A-|--------------|------------------|----------------------|--------|
E-|--------------|------------------|----------------------|-----3--|

 

FIND THE RIVER

-------2---------0----
----3--3------3--3----
Intro Riff: --2----2----0----0---- x 2
0------0--2------2----
----------------------
----------------------

D Dm Dsus2 Dsus4/G x 2

D Dm Dsus2 Dsus4/G
Hey now little speedy head, the read on the speedmeter says
D Dm Dsus2
you have to go the task in the city
D Dm
Where people drown and people serve,
Dsus2 Dsus4/G D Dm Dsus2
Don't be shy, your just deserve is only just light years to go.

G A D Em
Me, my thoughts are flower strewn, ocean storm, bayberry moon.
G A D
I have got to leave to find my way
G A D Em
Watch the road and memorize this life that pass before my eyes,
G A D
nothing is going my way


D Dm Dsus2 Dsus4/G x 2


D Dm Dsus2 Dus4/G
The ocean is the rivers goal, a need to leave the water knows.
D Dm Dsus2
We're closer now than light years to go.

G A D Em
I have got to find the river, bergamot and vetiver
G A D
Run through my head and fall away.
G A D Em
Leave the road and memorize this life that pass before my eyes,
G A D
nothing is going my way.

 

DOWNLOAD TYZDNA


R.E.M. - IHT_U_EDIYTW [dubmix]
DOWNLOAD


FLASH PLAYER

flash music player

ANKETA

Vas favorit spomedzi doposial zverejnenych skladieb?

Oh My Heart
Mine Smell Like Honey
Discoverer
Uberlin
It Happend Today

Predbezne vysledky


MAILINGLIST

Chcete byť vždy v čas informovaný o novinkách a aktualitách okolo R.E.M.?
Zaregistrujťe sa!




VÝROKY



FOTO 1/2-MESIACA



CHAT


WEB NEWS


26.01. 2011 - Nova anketa


PARTNERI


Nočná Hudba

Codegravity

Radiohead.sk

Hudba



ICQ


Up 132-246-975
Majk 94-967-086


INFO

Nastaviť ako homepage
Zaradiť medzi obľúbené
Zobrazení za dnes
94
Aktuálna návšteva
1 clovek

Copyright © 2001-2004, R.E.M. fans Czechoslovakia. Design by Up